Intro:
e-------------------------------------|
B|--------8--X--75----------------8--X--8--105--|
G|--7--7--7--X--74---------7--7---7--X--7---74--|
D-------------------------------------|
A-------------------------------------|
E-------------------------------------|

Intro2:   X2     
e------------------------------------|
B------------------------------------|
G|-----7-7-----7-7-----9-9-----9-9-----12-12-----|
D|-----7-7-----7-7-----9-9-----9-9-----12-12-----|
A|-----5-5-----5-5-----7-7-----7-7-----10-10-----|
E|-0-0-----0-0-----0-0-----0-0-----0-0-------0-0-|

e-------------|
B-------------|
G|-14-14---9--9-10-9-10-9-|
D|-14-14---9--9--9-9- 9-9-|
A|-12-12---7--7--7-7--7-7-|
E-------------|


Verse:    X2         
e------------------------------------|
B------------------------------------|
G|-----7-7-----7-7-----9-9-----9-9-----12-12-----|
D|-----7-7-----7-7-----9-9-----9-9-----12-12-----|
A|-----5-5-----5-5-----7-7-----7-7-----10-10-----|
E|-0-0-----0-0-----0-0-----0-0-----0-0-------0-0-|

e-------------|
B-------------|
G|-14-14---9--9-10-9-10-9-|
D|-14-14---9--9--9-9- 9-9-|
A|-12-12---7--7--7-7--7-7-|
E-------------|


I'm getting edgy all the time 
There's someone around me just a step behind 
It's kinda scary, the shape I'm in 
The walls are shakin' and they're closing in 
Too fast or a bit too slow 
I'm paranoid of people and it's starting to show 
There's one guy that I can't shake 
Over my shoulder is a big mistake

Chorus:   X4
e----------------------------------------|
B----------------------------------------|
G|---9-9--------------12-12-12-12---------------*9---|
D|---9-9-10-10-10-10--12-12-12-12--12-12-12-12--*9---|
A|---7-7-10-10-10-10--10-10-10-10--12-12-12-12--*7---|
E|--------8--8--8--8---------------10-10-10-10-------|

Sitting on the bed 
Or lying wide awake 
There's demons in my head 
And it's more than I can take 
I think I'm on a roll 
But I think it's kinda weak 
Saying all I know is 
I gotta get away from me

Verse:
I tell you something just ain't right 
My head is on loose but my shoes are tight 
Avoiding my friends cause they all bug 
Life is a riddle and I'm really stumped 
If you reason, don't you know 
Your own preoccupation is where you'll go 
I think I'm being followed, I look around 
It's only my shadow creepin' on the ground

Chorus:  X2


Текст, аккорды и табулатура для песни "Gotta Get Away", исполняет "Offspring".
Используемые в песне аккорды можно найти в разделе Как брать аккорды. Аккорды для шестиструнной гитары. Другие песни можно найти на нашем сайте, воспользовавшись алфавитным указателем вверху страницы.


 
Ошибка в тексте? Выделите ошибку и нажмите Ctrl+Enter