F                G#               D#               B 
e---------------------------------------------------------
B---------------------------------------------------------
G------------------------8-8-8-8-8-8-8-8------------------
D|-3-3-3-3-3-3-3-3--6-6-6-6-6-6-6-6--8-8-8-8-8-8-8-8—-8-8-8-8-8-8-8-8-
A|-3-3-3-3-3-3-3-3--6-6-6-6-6-6-6-6--6-6-6-6-6-6-6-6—-8-8-8-8-8-8-8-8-
E|-1-1-1-1-1-1-1-1--4-4-4-4-4-4-4-4-------------------6-6-6-6-6-6-6-6-
  
   F                G#               D#               B 
e---------------------------------------------------------
B---------------------------------------------------------
G------------------------8-8-8-8-8-8-8-8------------------
D|-3-3-3-3-3-3-3-3--6-6-6-6-6-6-6-6--8-8-8-8-8-8-8-8—-8-8-8-8-8-8-8-8-
A|-3-3-3-3-3-3-3-3--6-6-6-6-6-6-6-6--6-6-6-6-6-6-6-6—-8-8-8-8-8-8-8-8-
E|-1-1-1-1-1-1-1-1--4-4-4-4-4-4-4-4-------------------6-6-6-6-6-6-6-6-

e|-------1---------------------------
B|---1------------4-----------8------
G|-2-----------5------------8--------
D|-----3-----6----------8---------8—-
A---6-----6---6-------8--
E---------------------6--

Verse 1:
F          G#        
Maybe in another life
D#                 B     
I could find you there
F              G#                           
Pulled away before your time
D#                 B                          
I can´t deal it´s so unfair 

Chorus:
        F              
And it feels
        G#             
And it feels like
D#                B      
Heaven´s so far away
        F              
And it feels
         G#             
Yeah it feels like
     D#                      
The world has grown cold
B
Now that you´ve gone away 
 
Verse 2:
Leaving flowers on your grave
Show that I still care
But black roses and Hail Mary´s
Can´t bring back what´s taken from me

I reach to the sky
And call out your name And if I could trade
I would 
 
Chorus:
And it feels
And it feels like
Heaven´s so far away
And it stings
Yeah it stings now
The world is so cold Now that you´ve gone away

I reach to the sky
And call out your name And if I could trade
I would 

Chorus:
And it feels
And it feels like
Heaven´s so far away
And it feels
Yeah it feels like
The world has grown cold
Now that you´ve gone away


// Люблю Offspring…

// Пишите, если что…


Текст, аккорды и табулатура для песни "Gone Away", исполняет "Offspring".
Используемые в песне аккорды можно найти в разделе Как брать аккорды. Аккорды для шестиструнной гитары. Другие песни можно найти на нашем сайте, воспользовавшись алфавитным указателем вверху страницы.


 
Ошибка в тексте? Выделите ошибку и нажмите Ctrl+Enter