Song: Forever and a Day
Artist: The Offspring
Album: Ignition
Tabbed By: Cory Waller (Corgasm) []*[]
[email protected] 
(e-mail me if you live around Calgary, I'm looking for a new band)

This is by far my favourite Offspring song ever 
and I'm surprised there isn't a tab for it on this 
site so I'm gonna make one up quick...

Intro/Chorus (geetar 1), (played twice at intro):

e|---------------------|-----------------------------------------|
B|---------------------|------------10-11-11-10--------5-6-6-5---|
G|---7-7-7--10--9-10---|---10-10-10-10-10-10-10--5-5-5-5-5-5-5---|
D|---7-7-7--12-12-12---|---10-10-10--------------5-5-5-----------|
A|---------------------|-----------------------------------------|
E|---------------------|-----------------------------------------|

e|---------------------|
B|---------------------|
G|---7-7-7--10--9-10---|
D|---7-7-7--12-12-12---|
A|---------------------|
E|---------------------|

Intro/Chorus (geetar two), (its a little different on the first intro riff), Verse:

e|------------------|---------------------------------------------|
B|------------------|---------------------------------------------|
G|-7-xxxxx-7--7-7-7-|-10-xxxxx10--10-10-10------------------------|
D|-7-xxxxx-7--7-7-7-|-10-xxxxx10--10-10-10--10-xxxxx10--10-10-10--|
A|-5-xxxxx-5--5-5-5-|--8-xxxxx-8---8--8--8--10-xxxxx10--10-10-10--|
E|------------------|------------------------8-xxxxx-8---8--8--8--|

e|------------------|
B|------------------|
G|-7-xxxxx-7--7-7-7-|
D|-7-xxxxx-7--7-7-7-|
A|-5-xxxxx-5--5-5-5-|
E|------------------|

Bridge (I would be patient...), (too lazy to tab a bunch of power chords):

e|----------------------------------------------------|
B|----------------------------------------------------|
G|---10-----------------------------------------------|
D|---10-*5-10----8----8----10----10----8----8----10---|
A|----8----10-*5-8-*5-8-*5-10-*5-10-*5-8-*5-8-*3-10---|
E|----------8----6----6-----8-----8----6----6-----8---|

Solo (i might have missed a couple notes at the beginning, its kinda tough to 
make out when it first starts off... still, this sounds good):

e|------------------------------------------------------
B|--8^11-8p6-6-6h8p6-8^11-8p6-6-6--------6h8p6-8^11-8p6-
G|----------7-7--------------7-7-8-5-5-/7---------------
D|----------------------------------8-------------------
A|------------------------------------------------------
E|------------------------------------------------------

------------------13h15p13-15^17-15-13h15p13-12|
--6-6h8p6----15-15-----------------------------|
-7-7-----/14-14--------------------------------|
-----------------------------------------------|
-----------------------------------------------|
-----------------------------------------------|

*Note: The slide up to fret 14 and that little 2 string chord (which is played
a few times, but I didn't want to put it all in) is the only part 
I'm not sure aboOt.  The rest is ok.


Текст, аккорды и табулатура для песни "Forever And A Day", исполняет "Offspring".
Используемые в песне аккорды можно найти в разделе Как брать аккорды. Аккорды для шестиструнной гитары. Другие песни можно найти на нашем сайте, воспользовавшись алфавитным указателем вверху страницы.


 
Ошибка в тексте? Выделите ошибку и нажмите Ctrl+Enter