Band: Offspring
Song: Dirty Magic
Album: Ignition

Ok here's the intro from the book because the cocky other guy who did it
completely wrong annoyed me.

Intro
E--------------------------------------------------
B--------------------------------------------------
G--------------------------------------------------
D--------------------------------------------------
A-----------------7-----7----------10----------9----
E--0--0--1/*5--5-----5-----5/8--8------8/7--7-----7-

E--------------------------------------------------
B--------------------------------------------------
G--------------------------------------------------
D--------------------------------------------------
A-----2-----3--2-------2-----3--2------------------
E--0-----0----------0-----0--------3/5---(cntnue from *)

You want anymore from the books you can email me on [email protected]


Текст, аккорды и табулатура для песни "Dirty Magic", исполняет "Offspring".
Используемые в песне аккорды можно найти в разделе Как брать аккорды. Аккорды для шестиструнной гитары. Другие песни можно найти на нашем сайте, воспользовавшись алфавитным указателем вверху страницы.


 
Ошибка в тексте? Выделите ошибку и нажмите Ctrl+Enter