I can not say that this is completely original, but I saw the way it was tabbed out on the first 2 versions and thought to myself - I have to fix this.

Offspring – Defy you

Intro/Chorus (x2)
e|---------------------------------------------------| 
b|---------------------------------------------------| 
g|-7/9-9-9-9--9--------------------------------------| 
d|-7/9-9-9-9--9--5--5-5-55-5/7-7-7-7--7--2--2-2--2-2-| 
a|-5/7-7-7-7--7--5--5-5-55-5/7-7-7-7--7--2--2-2--2-2-| 
E|---------------3--3-3-33-3/5-5-5-5--5--0--0-0--0-0-| 

e|--------------------------------------------------| 
b|--------------------------------------------------| 
g|-7/9-9-9-9--9-------------------------------------| 
d|-7/9-9-9-9--9--5--5-5-55--7---75---7---2-2--5-2---| 
a|-5/7-7-7-7--7--5--5-5-55--7---75---7---2-2--5-2---| 
E|---------------3--3-3-33--5---53---5---0-0--3-0---| 

2nd time play over intro (x3)                                                                4th time play 

e|-----------------------------------|-------------|
b|-----------------------------------|-------------|
g|-7/9-9-9-9--9-9~---9-9/12-129-9-9-|-------------|
d|-----------------------------------|--7--5--2----|
a|-----------------------------------|--7--5--2----|
E|-----------------------------------|--5--3--0----|

Verse (3x)                                                                  2nd time play end with |/
e|-------------------------------------------|------
b|-------------------------------------------|------
g|---7-7-7-9-9-9-----------------------------|------
d|-2-7-7-7-9-9-9-5-5----2-5-5-5-7-7-7-2-2----|---5--
a|-2-5-5-5-7-7-7-5-5----2-5-5-5-7-7-7-2-2----|---5--
E|-0-------------3-3----0-3-3-3-5-5-5-0-0----|---3--

Verse end
e|----------------------------------------------| 
b|----------------------------------------------| 
g|---7-7-7-9-9-9--------------------------------| 
d|-2-7-7-7-9-9-9-5-5----2-5-5-5-7-7-5-7-7-5-7-7-| 
a|-2-5-5-5-7-7-7-5-5----2-5-5-5-7-7-5-7-7-5-7-7-| 
E|-0-------------3-3----0-3-3-3-5-5-3-5-5-3-5-5-| 

Play Intro/Chorus x2
Play Verse (3x) and Verse End

Bridge
e|-------------------------------------------------------| 
b|-------------------------------------------------------| 
g|-------------------------------------------------------| 
d|-9*-------------------------7*-------------------------| 
a|-7-7--7-7--7-7--7-7--7-7-7--5-5--5-5--5-5--5-5--5--5-5-| 
E|-------------------------------------------------------|

e|---------------------------------| 
b|---------------------------------| 
g|---------------------------------| 
d|-5-5-5-5-5-5-5-5-7-7-7-7-7-7-7-7-| 
a|-5-5-5-5-5-5-5-5-7-7-7-7-7-7-7-7-| 
E|-3-3-3-3-3-3-3-3-5-5-5-5-5-5-5-5-| 
p.m.----------------------------|

Play Intro/Chorus (x4)
3rd time play fill with chorus
Midway thru the 4th time switch to:

e|---------------------------------------| 
b|---------------------------------------| 
g|-7/9-9-9-9--9-9~--/-14-14-14-12/14-14-| 
d|---------------------------------------| 
a|---------------------------------------| 
E|---------------------------------------|

Bridge (different from 1st)
(x4
 
d|-9--------------------------7--------------------------| 
a|-7-7--7-7--7-7--7-7--7-7-7--5-5--5-5--5-5--5-5--5--5-5-| 
E|-------------------------------------------------------| 
 
d|------------------------------------------------------| 
a|-5--------------------------7-------------------------| 
E|-3-3--3-3--3-3--3-3--3-3-3--5-5--5-5--5-5--5-5--5-5-5-|

Halfway through 4th time play:
e|----------------------------| 
b|----------------------------| 
g|-9-9--9-9--9-9--9-9--9--9-9-| 
d|-x-x--x-x--x-x--x-x--x--x-x-| 
a|-7-7--7-7--7-7--7-7--7--7-7-| 
E|----------------------------|

I hear from other people that there are more inset rifts during the chorus and bridge, but I havent heard them to tab them out. OFFSPRING ROCKS!!!


Текст, аккорды и табулатура для песни "Defy You", исполняет "Offspring".
Используемые в песне аккорды можно найти в разделе Как брать аккорды. Аккорды для шестиструнной гитары. Другие песни можно найти на нашем сайте, воспользовавшись алфавитным указателем вверху страницы.


 
Ошибка в тексте? Выделите ошибку и нажмите Ctrl+Enter