THE OFFSPRING - BEHEADED
    -------------


This is a very nice song , one of my favourites, and also is kinda easy 
to play.

INTRO	

E-6-6-4-4-7-7-7-6--|
B-4-4-4-4-4-4-4-4--|
G------------------|      X  4
D------------------|
A------------------|
E------------------|
  
VERSE #1

E-----------------------|--------------|
B-----------------------|--------------|
G-8--6--9-8--8--6--9-8--|--------------|     X 2
D-8--6--9-8--8--6--9-8--|--6--9--8-----|
A-6--4--7-6--6--4--7-6--|--6--9--8-----|
E-----------------------|--4--7--6-----|

CHORUS

          d  d  d u u  u d u d
E-------------------------------|------------|
B-9---7-------------------------|-9---7------|  I put the upstrokes and 
G-8---6---8--8--8-9-8--8-8-8-8--|-8---6---8--|  dowstrokes just to help
D-6---4---8--8--8-9-8--8-8-8-8--|-6---4---8--|  (follow them! it's a lot
A---------6--6--6-7-6--6-6-6-6--|---------6--|    easeyer that way.)
E-------------------------------|------------|


	play intro 2x 

      play verse 2x

      play chorus 2x (The second one don't have the lyrics, and the
                       last powerchord is the first one of verse #2)
      
      
VERSE #2

E-------------------------------|
B--------6-6-6--5-5--4-4-4------|            In the second time play the 
G-8-8-8--6-6-6--5-5--4-4-4------|   X 10     first tree chords with more    
D-8-8-8--4-4-4--3-3--2-2-2------|            intensity.
A-6-6-6-------------------------|
E-------------------------------|

RIFF

E----------------------------------------|
B-10---11---10-11---10---11---10---11----| 
G----------------------------------------|  This riff is played all the way
D----------------------------------------|  trough the second verse, so it's
A----------------------------------------|  is also played 10 times. 
E----------------------------------------|






BRIDGE

E---------------|
B-----7---------|   
G-8---6---9-----|    X 6
D-8---4---9-----|
A-6-------7-----|
E---------------|

      play intro 2x

      play chorus 

      
LAST ONE

          d  d  d u u  u d u d
E-------------------------------|
B-9---7-------------------------| 
G-8---6---8--8--8-9-8--8-8-8-8--|       X 2
D-6---4---8--8--8-9-8--8-8-8-8--|     
A---------6--6--6-7-6--6-6-6-6--|
E-------------------------------|



Текст, аккорды и табулатура для песни "Beheaded", исполняет "Offspring".
Используемые в песне аккорды можно найти в разделе Как брать аккорды. Аккорды для шестиструнной гитары. Другие песни можно найти на нашем сайте, воспользовавшись алфавитным указателем вверху страницы.


 
Ошибка в тексте? Выделите ошибку и нажмите Ctrl+Enter