The Offspring, Autonomy.
Tabbed by mike, [email protected]
  
here.

Autonomy

4 measures of drum
.A.
E|-------------------------------|
B|-------------------------------|
G|-------------------------------|
D|-4-4--44444----4-4--44444------|  x2
A|-4-4--44444----4-4--44444------|
E|-2-2--22222----2-2--22222------|
           /            /
         pm            pm

.B.
E|------------------------------------|
B|------------------------------------|
G|------------------------------------|
D|-4-4--444-444-444--4-4--444-444-444-|  x2
A|-4-4--444-444-444--4-4--444-444-444-|
E|-2-2--222-222-222--2-2--222-222-222-|
                 /                /
            pm                pm
.C.
E|------------------------------------|
B|------------------------------------|
G|-----11-11-11-999-888-666-444-------|
D|-444-11-11-11-999-888-666-444-4-4---|   x2
A|-444-9--9--9--777-666-444-222-4-4---|
E|-222--------------------------2-2---|

.D. verse
E|-------------------|
B|-------------------|
G|---------4-4-------|
D|-4-4-4-4-4-4-4-----|   x2
A|-4-4-4-4-2-2-4-----|
E|-2-2-2-2-----2-----|


repeat .C.


.E. guitar1

E|-----------------------|
B|-----------------------|
G|-----------------------|
D|--4-4-4-4-4-4-4-4------|
A|--4-4-4-4-4-4-4-4------|
E|--2-2-2-2-2-2-2-2------|

.E. guitar2

E|---5-------------|
B|-----7-5---------|
G|---------6-4-----|
D|-------------7---| or something like that
A|-----------------|
E|-----------------|

.F. chorus

E|------------------------------------------------------------------------------|
B|------------------------------------------------------------------------------|
G|------------------------------------------------------------------------------|
D|-----(5)------(5)-------(7)------(7)-------(9)------(9)-------(9)------(9)----|
A|------5--------5---------7--------7---------9--------9---------9--------9-----|
E|-3-33---3--333---3--5-55---5--555---5--7-77---7--777---7--7-77---7--777---7---|

some people prefer to use power chords there instead of single notes. it would be-
G GG C G, then A AA E A, then B BB F# B.

that's the whole song, except for the lead--here's the lead


.G. lead

E|--------------------------------------------------------------------------
B|--------------------------------------------------------------------------
G|--------------------------------------------------------------------------
D|--------------------------------------------------------------------------
A|--9-10-10/12--12/10-10-10-10-9-10-9-7-9-7-5-7-5-4-5-4--4-5-5/7-5-4-5-5/7--
E|--------------------------------------------------------------------------

E|--------------------------------------------------------------------------
B|--------------------------------------------------------------------------
G|--------------------------------------------------------------------------
D|-----------------------------------7-9-9/11--11h12-12-12-11-12-11-12------
A|-7-6-7-7/9-7-6-7-7/9-7-6-7-7/9--11----------------------------------------
E|--------------------------------------------------------------------------

E|--------------------------------------------------------------------------
B|--------------------------------------------------------------------------
G|--------------------------------------------------------------------------
D|-12/14-14-14-14-16-16-16-16-16/14-14-14-12-14-12-11-12-11-9-11-9-7-7-7----
A|--------------------------------------------------------------------------
E|--------------------------------------------------------------------------

E|--------------------------------------------------------------------------|
B|--------------------------------------------------------------------------|
G|-------11--------11---------11--------11----------------------------------|
D|--9-99----9--999----9--9-99----9--999----9--------------------------------|
A|--------------------------------------------------------------------------|
E|--------------------------------------------------------------------------|

and that's it...some of these parts repeat, but those are all of the parts. 
u'll have to figure out timing for yourself.



 
:: Ultimate Guitar Archive :: 
http://www.ultimate-guitar.com 



Текст, аккорды и табулатура для песни "Autonomy", исполняет "Offspring".
Используемые в песне аккорды можно найти в разделе Как брать аккорды. Аккорды для шестиструнной гитары. Другие песни можно найти на нашем сайте, воспользовавшись алфавитным указателем вверху страницы.


 
Ошибка в тексте? Выделите ошибку и нажмите Ctrl+Enter