Song:      The Day We Caught The Train
Artist:    Ocean colour Scene
Album:     Moseley Shoals
Tabbed By: Jason Mangan

Bass should be in standard tuning, low to high E, A, D, G.

1st Verse:
|----------------|----------------|----------------|----------------|
|----------------|----------------|----------------|----------------|
|----------------|----------------|----------------|----------------|
|----------------|----------------|----------------|1-1-1-1-1-1-1-1-|
1 * 2 * 3 * 4 *  1 * 2 * 3 * 4 *  1 * 2 * 3 * 4 *  1 * 2 * 3 * 4 *

|----------------|----------------|----------------|----------------|
|----------------|----------------|----------------|----4-----------|
|----------------|----------------|5-5-5-5-3-3-3-3-|2-2-----2-------|
|0-0-0-0-0-0-002-|3-3-3-3-3-3-3-3-|----------------|----------------|
1 * 2 * 3 * 4 *  1 * 2 * 3 * 4 *  1 * 2 * 3 * 4 *  1 * 2 * 3 * 4 *

Pre-chorus:
|-----9------9--|----------------|----9----------|----------------|
|-----------------|----7-----------|----------------|-------777777--|
|-7---------------|----------------|7---------------|----------------|
|(0)------0-0-----|5--(5)-55-5-557-|--------0-0-203-|5---5-(5)-------|
  1 * 2 * 3 * 4 *  1 * 2 * 3 * 4 *  1 * 2 * 3 * 4 *  1 * 2 * 3 * 4 *


|----------------|----------------|----------------|----------------|
|----------------|----------------|----------------|----------------|
|5---5-----------|--------4---4--/|7--------------|----------------|
|--------6-0-6---|7-0-7-----------|----0---0-0-002-|3-3-3-3-3-3-302-|
1 * 2 * 3 * 4 *  1 * 2 * 3 * 4 *  1 * 2 * 3 * 4 *  1 * 2 * 3 * 4 *

|----------------|----------------|
|----------------|----------------|
|----------------|--------4-------|
|3-3-3-3-3-3-3-3-|5---------------|
1 * 2 * 3 * 4 *  1 * 2 * 3 * 4 *

Chorus:
|----------------|----------------|----------------|----------------|
|----------------|----5-4-2-------|----------------|----5-4-2-2-----|
|5--575------7---|----------0-2-7-|5--575------7---|----------------|
|------7-5-5---5-|3-3-------------|------7-5-5---5-|3-3-------------|
1 * 2 * 3 * 4 *  1 * 2 * 3 * 4 *  1 * 2 * 3 * 4 *  1 * 2 * 3 * 4 *

2nd Verse:
|----------------|----7-------7--|----------------|----------------|
|----------------|----------------|----------------|----------------|
|----------------|5---------5-----|----5-----------|----------------|
|----------------|----------------|3------33-3-333-|1-1-1-1-1-1-1-1-|
1 * 2 * 3 * 4 *  1 * 2 * 3 * 4 *  1 * 2 * 3 * 4 *  1 * 2 * 3 * 4 *

|----------------|----------------|----------------|----------------|
|----------------|--------3-2-----|----------------|----4-----------|
|-------5757-----|----5-5-----5-3-|5-5-5-0-3-3-3-0-|2-2-----2-2-----|
|0-0-0-0-----012-|3-3-------------|----------------|------------2---|
1 * 2 * 3 * 4 *  1 * 2 * 3 * 4 *  1 * 2 * 3 * 4 *  1 * 2 * 3 * 4 *

Pre-chorus (Notes in parenthesis this time)
Chorus

Interlude:
|--------|----------------|----------------|-----------7h97----|
|--------|7-7-5-5-4-4-----|----------------|--------7h9--------|
|--------|------------7-7-|--------4-4-7---|5---5--5-----------|
|--------|----------------|5-5-7-7---------|-------------------|
1 * 2 *  1 * 2 * 3 * 4 *  1 * 2 * 3 * 4 *  1 * 2 * 3  *  4 *

|----------------|----------------| ||----------------|----------------||
|7-7-5-5-4-4-----|----------------| ||----------------|----5-4-2---2---||
|------------7-7-|--------4-4-7---| ||5--5------------|----------2-----||
|----------------|5-5-7-7---------| 
||--------5-5-----|3---------------||(x2)
1 * 2 * 3 * 4 *  1 * 2 * 3 * 4 *     1 * 2 * 3 * 4 *  1 * 2 * 3 * 4 *

Outro (Chorus riff with some variations till fade!)

A great tune from the Dad rockers - so get out your flares and have some 
fun!


Текст, аккорды и табулатура для песни "The Day We Caught The Train", исполняет "Ocean Colour Scene".
Используемые в песне аккорды можно найти в разделе Как брать аккорды. Аккорды для шестиструнной гитары. Другие песни можно найти на нашем сайте, воспользовавшись алфавитным указателем вверху страницы.


Слушать онлайн The Day We Caught The Train


Ocean Colour SceneThe Day We Caught The Train на Яндекс.Музыке


 
Ошибка в тексте? Выделите ошибку и нажмите Ctrl+Enter