#----------------------------------PLEASE NOTE--------------------------------#
#This file is the author's own work and represents their interpretation of the#
#song. You may only use this file for private study, scholarship, or research.#
#-----------------------------------------------------------------------------#
#-- File created with Instab - http://www.pconline.com/~smcarey/instab.html --#
#-----------------------------------------------------------------------------#

Author/Artist: OAR Of A Revolution
Title: 3 AM
Transcribed by: Aaron Stark
Email: [email protected]

[email protected]-------------|
-5---6---8--------------------------------------------------------------------|
-6---7---9--------------------------------------------------------------------|
-7---7---9--------------------------------------------------------------------|
-7---5---7--------------------------------------------------------------------|
-5----------------------------------------------------------------------------|
 Intro

-5-5---10---12----------------------------------------------------------------|
-5-5---10---12----------------------------------------------------------------|
------------------------------------------------------------------------------|
------------------------------------------------------------------------------|
------------------------------------------------------------------------------|
------------------------------------------------------------------------------|
 Verse

-5---5---7--------------------------------------------------------------------|
-5---6---8--------------------------------------------------------------------|
-6---7---9--------------------------------------------------------------------|
-7---7---9--------------------------------------------------------------------|
-7---5---7--------------------------------------------------------------------|
-5----------------------------------------------------------------------------|
 Chourus- Strum chords      Solo is in A minor on high strings


Текст, аккорды и табулатура для песни "3 Am", исполняет "Oar".
Используемые в песне аккорды можно найти в разделе Как брать аккорды. Аккорды для шестиструнной гитары. Другие песни можно найти на нашем сайте, воспользовавшись алфавитным указателем вверху страницы.


 
Ошибка в тексте? Выделите ошибку и нажмите Ctrl+Enter