Dsus2      A         Dsus2    Cmaj     Dsus2     Bmaj
e-|--------0-------------------0-----------------0---------2-
h-|----3----------2--------3---------1-------3---------4-----
g-|------2-----2-------------2----2------------2---------3---
d-|-0-------------------0-----------------0----------3-------
A------------------------------------------------
E------------------------------------------------

e-|------5-------8-----
h-|---6---8---9---11---
g-|----5-------8-------
d-|--3------6----------
A----------
E----------

Вось так, альбо нешта падобнае.
У прыпеве граецца G H B G# (гл. вэрсiю 1 i 2).
Апошняя частка граецца акрдамi, назовы якiх я ня ведаю,
але выглядаюць яны так (толькi ж адпаведна на сваiх ладах):

e-|-i-|---|---|---|-
h-|-i-|---|---|-p-|-
g-|-i-|---|-r-|---|-
d-|-i-|---|---|---|-
A-|-i-|---|---|---|-
E-|-i-|---|---|---|-


Текст, аккорды и табулатура для песни "Чыстая-Сьветлая", исполняет "N.R.M.".
Используемые в песне аккорды можно найти в разделе Как брать аккорды. Аккорды для шестиструнной гитары. Другие песни можно найти на нашем сайте, воспользовавшись алфавитным указателем вверху страницы.


Слушать онлайн Чыстая-сьветлая


NRMЧыстая-сьветлая на Яндекс.Музыке


 
Ошибка в тексте? Выделите ошибку и нажмите Ctrl+Enter