Am         Dm        G          C
На стене в гостинной твой висит портрет
Am       Dm   G    C
Ты такая юная в 18 лет
Am       Dm     G            C
нежная и чистая словно белый лист
Am         Dm        Em       Am
только погубил тебя сука терорист

Синтезатор:

Дорожка 1
                                                                   
E------|-------1----1---------|
B||---1------------4-----------|--1--------------1----|
G||*--------------------------------------|
D||*--------------------------------------|
A-----------------|
E-----------------|


                                                                 
--4----4--------6-----10----------------|
---------------------|--3----3-----------------4----|
----------------------------------------|
----------------------------------------|
----------------------------------------|
----------------------------------------|


                                                                
------------3----3---------------------|
--4----1--------------|--4--------1--------|------4------------|
---------------------------------------|
---------------------------------------|
---------------------------------------|
---------------------------------------|


                                                                  
---------------1----|--1---------4----4----|------3--------------|
----------1---------|-------1--------------3----3----|
-----------------------------------------|
-----------------------------------------|
-----------------------------------------|
-----------------------------------------|


                                                                  
--7--------------------------|--3----3--------------||
-------------------|------4----4----1-----4---------||
---------------------------------------*||
---------------------------------------*||
----------------------------------------||
----------------------------------------||


Текст, аккорды и табулатура для песни "Твой портрет", исполняет "Новые Не русские".
Используемые в песне аккорды можно найти в разделе Как брать аккорды. Аккорды для шестиструнной гитары. Другие песни можно найти на нашем сайте, воспользовавшись алфавитным указателем вверху страницы.


 
Ошибка в тексте? Выделите ошибку и нажмите Ctrl+Enter