Band: Nothingface
Song: Useless

Tabber: John Cukras
Email: [email protected]

Tuning: Drop D

I think the intro is using octave, but not sure.
If you tab it, lemme have :)
It seems similar to the beginning riff,
but I wasn't able to figure it out.

Riff 1:
E---------------------------------------------------
B---------------------------------------------------
G---------------------------------------------------
D---------------------------------------------------
A----3-4-5-6----3-4-5-6---------4-5-6-7-----4-5-6-7-
D-0-----------0--------------0-----------0----------

Riff 2
E---------------------------
B---------------------------
G---------------------------
D---------------------------
A-9/3----------9/3----------
D-9/3-00---00--9/3-00-00-00-
pm    ..   ..      .. .. ..

Riff 1

Riff 2

Riff 1

Riff 3: Second half was difficult to hear.
E----------------------------------------------------------------
B----------------------------------------------------------------
G----------------------------------------------------------------
D-------------------------------------(2nd half)-----------------
A--------7/3---------7/3----------4/5-----5/1-----4/5-----3/1----
D-000000-7/3-0000000-7/3------000-4/5-000-5/1-000-4/5-000-3/1----

Riff 2

Riff 1

Riff 4:
E-----------------
B-----------------
G-----1-----1-----
D-----1-----1-----
A-----------------
D-00----00-----00-
pm..    ..     ..


Текст, аккорды и табулатура для песни "Useless", исполняет "Nothingface".
Используемые в песне аккорды можно найти в разделе Как брать аккорды. Аккорды для шестиструнной гитары. Другие песни можно найти на нашем сайте, воспользовавшись алфавитным указателем вверху страницы.


Слушать онлайн Useless


NothingfaceUseless на Яндекс.Музыке


 
Ошибка в тексте? Выделите ошибку и нажмите Ctrl+Enter