Not By Choice - Now That You Are Leaving
Tabbed By: Nicholas Mazerolle
EMail: [email protected]


Intro
G|-------------------------------------------------------------------|
D|-------------------------------------------------------------------|
A|--6-6-6-6-6-6-6-6--------------------------------------------------|
E|------------------6-6-6-6-6-6-6-6-8-8-8-8-8-8-8-8-4-4-4-4-6-6-6-6--|

Chorus
G|-------------------------------------------------------------------|
D|-------------------------------------------------------------------|
A|--6-6-6-6-6-6-6-6--------------------------------------------------|
E|------------------6-6-6-6-6-6-6-6-8-8-8-8-8-8-8-8-4-4-4-4-6-6-6-6--|

Verse
G|-----------------------------------|
D|-----------------------------------|
A|--6-6-6-6--------------------------|
E|----------6-6-6-6-8-8-8-8-4-4-4-4--|

Bridge
G|-------------------------------------------------------------------|
D|-------------------------------------------------------------------|
A|------------------6-6-6-6-6-6-6-6----------------------------------|
E|--4-4-4-4-4-4-4-4-----------------8-8-8-8-8-8-8-8-6-6-6-6-6-6-6-6--|

Just before Chorus
G|---------------------------|
D|---------------------------|
A|---------------------------|
E|--4-4-4-4-4-4-4-4-6-6-6-6--|

Order
-----
Intro
Chorus (2x)
Verse (5x)
Before Chorus
Chorus (2x)
Verse (6x)
Before Chorus
Chorus (2x)
Verse (2x)
Brdige (2x)
Before Chorus
Chorus (4x)
Verse (2x)
End On G#5

------
Enjoy!
------


Текст, аккорды и табулатура для песни "Now That You Are Leaving", исполняет "Not By Choice".
Используемые в песне аккорды можно найти в разделе Как брать аккорды. Аккорды для шестиструнной гитары. Другие песни можно найти на нашем сайте, воспользовавшись алфавитным указателем вверху страницы.


 
Ошибка в тексте? Выделите ошибку и нажмите Ctrl+Enter