Artist: Not By Choice
Song: Maybe One Day
Submitted by: Jason
. = palm mute
~ = let ring

Intro
e|-------------------------------------------------|
B|-------------------------------------------------|
G|--4-4---------6-6-------4-4----------------------|
D|--4-4---4-4---6-6---2~~-4-4---4-4---2~~-6-6-4-4--|
A|--2-2---4-4---4-4---2~~-2-2---4-4---2~~-6-6-4-4--|
E|--------2-2---------0~~-------2-2---0~~-4-4-2-2--|


The little guitar part you constantly hear
e|-------------------------------------------------------------------|
B|-------------------------------------------------------------------|
G|-------------------------------------------------------------------|
D|-4-2-1--4-2-1--4-2-1-------4-2-1--4-2-1-------2-1------------------|
A|----------------------2-4----------------2-4-------2---------------|
E|-------------------------------------------------------------------|


While one's playin that one plays this (same as chorus)
e|-------------------------------------------------------------------|
B|-------------------------------------------------------------------|
G|--4-4-4-4---------6-6-6-6---------4-4-4-4--------------------------|
D|--4-4-4-4-4-4-4-4-6-6-6-6-2-2-2-2-4-4-4-4-4-4-4-4-2-2-2-2-6-6-4-4--|
A|--2-2-2-2-4-4-4-4-4-4-4-4-2-2-2-2-2-2-2-2-4-4-4-4-2-2-2-2-6-6-4-4--|
E|----------2-2-2-2---------0-0-0-0---------2-2-2-2-0-0-0-0-4-4-2-2--|


Chorus
e|-------------------------------------------------------------------|
B|-------------------------------------------------------------------|
G|--4-4-4-4---------6-6-6-6---------4-4-4-4--------------------------|
D|--4-4-4-4-4-4-4-4-6-6-6-6-2-2-2-2-4-4-4-4-4-4-4-4-2-2-2-2-6-6-4-4--|
A|--2-2-2-2-4-4-4-4-4-4-4-4-2-2-2-2-2-2-2-2-4-4-4-4-2-2-2-2-6-6-4-4--|
E|----------2-2-2-2---------0-0-0-0---------2-2-2-2-0-0-0-0-4-4-2-2--|



Verse
e|-------------------------------------------------|
B|-------------------------------------------------|
G|x-x-4-x-x-4-x-x-4-x-x-4--------------------------|
D|x-x-4-x-x-4-x-x-4-x-x-4-x-x-4-x-x-4-x-x-4-x-x-4--|
A|x-x-2-x-x-2-x-x-2-x-x-2-x-x-4-x-x-4-x-x-4-x-x-4--|
E|------------------------x-x-2-x-x-2-x-x-2-x-x-2--|

e|---------------------------------------|
B|---------------------------------------|
G|--x-x-6-x-x-6-x-x-6-x-x-6--------------|
D|--x-x-6-x-x-6-x-x-6-x-x-6-2~~-4-4-4-4--|
A|--x-x-4-x-x-4-x-x-4-x-x-4-2~~-4-4-4-4--|
E|--------------------------0~~-2-2-2-2--|

Pre-Chorus
e|-------------------------------------------------------------------|
B|-------------------------------------------------------------------|
G|----------4-4-4-4--------------------------------------------------|
D|--6-6-6-6-4-4-4-4-4-4-4-4-4-4-4-4-6-6-6-6-4-4-4-4-2-2-2-2-6-6-4-4--|
A|--6-6-6-6-2-2-2-2-4-4-4-4-4-4-4-4-6-6-6-6-4-4-4-4-2-2-2-2-6-6-4-4--|
E|--4-4-4-4---------2-2-2-2-2-2-2-2-4-4-4-4-2-2-2-2-0-0-0-0-4-4-2-2--|

Bridge
e|------------------------|
B|------------------------|
G|---------------9999999--|
D|--22222222222--xxxxxxx--|
A|--22222222222--7777777--|
E|--00000000000-----------|
     ..........
e|---------------------------------------------------------|
B|---------------------------------------------------------|
G|--6666666--44444---------222-------4-4-4-4---------------|
D|--6666666--44444--44444--222--222--4-4-4-4--4444444------|
A|--4444444--22222--44444--000--222--2-2-2-2--4444444------|
E|------------------22222-------000-----------2222222------|
                                               ......
e|---------------------------------------------------------|
B|---------------------------------------------------------|
G|--6666666--44444---------2~~~------2~~~------2~~~--------|
D|--6666666--44444--44444--2~~~------2~~~------2~~~--------|
A|--4444444--22222--44444--0~~~------0~~~------0~~~--------|
E|------------------22222----------------------------------|


Ending:
e|-----------------------------------------|-------|
B|-----------------------------------------|-------|
G|-4-4-444-----------6-6-666--9-9-999------|-9--9--|
D|-4-4-444--4-4-444--6-6-666--9-9-999---x2-|-9--9--|
A|-2-2-222--4-4-444--4-4-444--7-7-777------|-7--7--|
E|----------2-2-222------------------------|-------|
                                      2nd time end on this

Please rate this tab and let me know what ya think!


Текст, аккорды и табулатура для песни "Maybe One Day", исполняет "Not By Choice".
Используемые в песне аккорды можно найти в разделе Как брать аккорды. Аккорды для шестиструнной гитары. Другие песни можно найти на нашем сайте, воспользовавшись алфавитным указателем вверху страницы.


 
Ошибка в тексте? Выделите ошибку и нажмите Ctrl+Enter