EmD-Все струны открытые бас 4-я струна
  F#7C#-тоже что и F#7 только бас 5-я струна
  Esus-[020200]  бас 6-я струна
  AmC-[032210] бас 5-я струна
  A#dim-[012020] бас 5-я струна
Проигрыш:

0-------------0-------0---------5---------------5--------|
|-1-0---------0---------0-------0---------5---5-----------4---4------|
|---------0-----0-----0-------0---------5-------5-------5-------5----|
|-------2---------2-7-------5---------4-----------4---4-----------4--|
------------------------0---------------0----------------|
|-----0--------------------------------------------------------------|
   
0-------------0-------0---------5---------------3-2--|
|-1-0---------0---------0-------0---------4---4-----------0------|
|---------0-----0-----0-------0---------5-------5-------2--------|
|-------2---------2-7-------5---------4-----------4---1----------|
------------------------0---------------2------------|
|-----0----------------------------------------------------------|


  Em          EmD         F#7C#
   Мело, мело по всей земле во все пределы.
AmC      H7          Esus         E7  
   Свеча горела на столе, свеча горела.
        Am        D7         G       C
   Как летом роем мошкара летит на пламя,
  Am           A#dim         H7
   Слетались хлопья со двора к оконной раме.

   Метель лепила на стекле кружки и стрелы, 
   Свеча горела на столе, свеча горела.
   На озаренный потолок ложились тени,
   Скрещенье рук, скрещенье ног, судьбы скрещенье.

   И падали два башмачка со стуком на пол,
   И воск слезами с ночника на платье капал.
   И все терялось в снежной мгле седой и белой,
   Свеча горела на столе, свеча горела.

   На свечку дуло из угла и жар соблазна
   Вздымал как ангел два крыла крестообразно.
   Мело весь месяц в феврале и то и дело
   Свеча горела на столе, свеча горела.
   Свеча горела на столе,
   Свеча горела...


	
	
	        
Комментарий автора: Я играю эту песню перебором: Бас-3-2-3-1-3-2-3 но другие тоже подходят.

Текст, аккорды и табулатура для песни "Зимняя ночь", исполняет "Носков Николай".
Используемые в песне аккорды можно найти в разделе Как брать аккорды. Аккорды для шестиструнной гитары. Другие песни можно найти на нашем сайте, воспользовавшись алфавитным указателем вверху страницы.


Слушать онлайн Зимняя ночь


Николай НосковЗимняя ночь на Яндекс.Музыке


 
Ошибка в тексте? Выделите ошибку и нажмите Ctrl+Enter