Song: Tum Huns Diyay (acoustic)
Artist: Noori
Album: Suno Kay Mein Hoon Jawan
Tabbed by: Ali Hafeez ([email protected])
This tab is completely my own work.

Tuning: Standard (EADGBe)

NOTE: 
Ok, the song is really really simple but i couldn't
think of a really effective way of showing the tab for 
it without making it a really long tab. so i split it
into figures. at the end of the tab i'll include the 
sequence the figures are played in. 

Symbols:
~  - hold
p  - pull off
h  - hammer on
/  - silde up
  - slide down
m  - palm mute
x  - mute


intro
|------------------------------|
|---xx-x--xx-x--xx-x--xx-x--x--|
|---xx-x--xx-x--xx-x--xx-x--x--|
|---xx-x--xx-x--xx-x--xx-x--x--|
|---xx-x--xx-x--xx-x--xx-x--x--|
|------------------------------| x1

fig1
|-------------------------------|
|-------------------------------|
|---9---9-9---8---9-9---8-9-8---|
|---9---9-9---9---9-9---9-9-9---|
|---7---7-7---7---7-7---7-7-7---|
|---0---0-0---0---0-0---0-0-0---|

fig2
|-------------------------------|
|-------------------------------|
|---9---9-9---8---9-9---8-9-8---|
|---9---9-9---9---9-9---9-9-9---|
|---0---0-0---0---0-0---0-0-0---|
|-------------------------------|

fig3
|-------------------------------|
|-------------------------------|
|---9---9-9---8---9-9---8-9-8---|
|---9---9-9---9---9-9---9-9-9---|
|---x---x-x---x---x-x---x-x-x---|
|---9---9-9---9---9-9---9-9-9---|

fig4
|-------------------------------|
|-------------------------------|
|---9---9-9---8---9-9---8-9-8---|
|---9---9-9---9---9-9---9-9-9---|
|---x---x-x---x---x-x---x-x-x---|
|---7---7-7---7---7-7---7-7-7---|

from fig1 - fig4, i usually like to play the last two strings open
cause it gives it a more resounding nice sound. and i think the 
second guitar on the song is also doing that, so feel free to hit
the b and high e string open almost throughout the song. fig3 and fig4
are optional, you could play fig1 twice instead of them, but they
follow the bass guitar and sound nicer.


pre-chorus
|---0---0---0------0---0---0----------------------|
|---0---0---0------0---0---0----------------------|
|---6---4---4------6---4---4----------------------|
|---6---4---4------6---4---4----4-4-4-4-4-4-4-4---|
|---4---2---0------4---2---0----2-2-2-2-2-2-2-2---|
|-------------------------------------------------|


chorus
a		     		     b	
|-----0-------0-------0-------0-----|-------------0----------------0---------|
|-------0-------0-------0-------0---|-----------3---3------------0---0-------|
|-----------------------------------|---------4------4---------6-------7-----|
|---2-------2-------6-------4-------|-----4-4----------4---7-7-----------7---|
|---2-------0-------4-------2-------|-----4----------------7-----------------|
|---0-------------------------------|-----2----------------5-----------------|


Solo bit after first chorus
						1st time	2nd time
|-------------------------------------------|---------------|---------------|
|-------------------------------------------|---------------|---------------|
|-------------------------------------------|---------------|---------------|
|---4h6-4---------6-4---------4h6-4---------|---6-4-7-6-6---|---------------|
|---------6-7-7-------6-7-7---------6-7-7---|---------------|---6-7-6-7-7---|
|-------------------------------------------|---------------|---------------|


guitar 2 bit in the second verse background
|-----0-----2---0-----2p0---2---0-----|
|---0---0-0---0---0-0-----0---0---0---|
|-------------------------------------|
|-------------------------------------|
|-------------------------------------|
|-------------------------------------|

|-----0-----7---0-----7p0---7---0-----|
|---0---0-0---0---0-0-----0---0---0---|
|-------------------------------------|
|-------------------------------------|
|-------------------------------------|
|-------------------------------------|


ending chorus (up one step)
a		b		   c		d
|-------------|---2---2---6---4---|---4---7---|---2---|
|-------------|---2---2---6---4---|---4---7---|---2---|
|---6-6-6-6---|---3---4---8---6---|---5---8---|---3---|
|---6-6-6-6---|---4---4---8---6---|---6---9---|---4---|
|---4-4-4-4---|---4---2---6---4---|---6---9---|---4---|
|-------------|---2---2-----------|---4---7---|---2---|

END---

Ok so how do you go about playing all these parts?

SEQUENCE:

Intro ... 1 time
[fig1 (twice) fig2 (twice)]... 3 times
[fig3 (once) fig4 (once) fig2 (twice)]... 1 time

VERSE
play the chords from fig1 and fig2 with different strumming variations
he plays it differently almost each time, i can't tab out each one.
the chords from fig1 and fig2 are repeatedly alternately 3 times

Pre Chorus (once)
Chorus part A (4 times)
Chorus part B (2 times)

Solo
Guitar Solo bit (fig 1 and fig2 in background on rhythm)

VERSE
halfway through verse the second verse guitar 2 bit kicks in
listen to the background

Pre Chorus (once)
Chorus part A (4 times)
Chorus part B (2 times)

Interlude
(fig1 and fig2 chords)

Chorus part A (4 times)
Chorus part B (2 times)
Ending Chorus part A (once)
Ending Chorus part B (4 times)
Ending Chorus part C (2 times)
Ending Chorus part D (once at the end of the song)

----

So that's how you play it. if you can't figure it out. sorry haha.
i know it looks complicated. it's not though. anyway..if you have 
questions about this tab..i'm sick of it so don't ask me haha.

if there are any serious bassists out there in islamabad who would
like to play in a band, contact me. no learners. have fun. ciao.


Текст, аккорды и табулатура для песни "Tum Hans Diyay Acoustic", исполняет "Noori".
Используемые в песне аккорды можно найти в разделе Как брать аккорды. Аккорды для шестиструнной гитары. Другие песни можно найти на нашем сайте, воспользовавшись алфавитным указателем вверху страницы.


 
Ошибка в тексте? Выделите ошибку и нажмите Ctrl+Enter