Nonpoint-Hive
Tuning:C,G,C,F,A,D
------------------|---------------|-------------------|-------|
------------------|---------------|-------------------|-------|
------------------|---------------|-----------------3-|-3-----|
-1-00-01-00-01010-|-1-00-01-00-02-|-20--002---02-02-3-|-3-2-0-|
-1-00-01-00-01010-|-1-00-01-00-02-|-20--002---02-02-1-|-1-2-0-|
-1-00-01-00-01010-|-1-00-01-00-02-|-20--002---02-02---|---2-0-|
                                   know you relieze!

------------------|------------|------------|---------------|--------|
------------------|------------|------------|---------------|--------|
------------------|------------|------------|---------------|--------|
-1-00-01-00-01010-|-555555-----|-6-666-55-3-|-0-565-3-4-3-5-|-3-0-3-0|
-1-00-01-00-01010-|------------|-6-666-55-3-|-0-565-3-4-3-5-|-3-0-3-0|
-1-00-01-00-01010-|------------|-6-666-55-3-|-0-565-3-4-3-5-|-3-0-3-0|
                                 gO!     Funky feeling part       Here we go.

------------------|-35/3535353-0--3/5/3/5/3/5/3-8-3----|
------------------|-------------------------------------------|
------------------|-------------------------------------------|
-0-00-565-343-353-|-------------------------------------------|
-0-00-565-343-353-|-------------------------------------------|
-0-00-565-343-353-|-------------------------------------------|


Текст, аккорды и табулатура для песни "Hive", исполняет "Nonpoint".
Используемые в песне аккорды можно найти в разделе Как брать аккорды. Аккорды для шестиструнной гитары. Другие песни можно найти на нашем сайте, воспользовавшись алфавитным указателем вверху страницы.


 
Ошибка в тексте? Выделите ошибку и нажмите Ctrl+Enter