- Карлик, Вам на какой этаж?
 - На девятый!
 
 Основной рифф:
   --------------------------------------------------
   --------------------------------------------------
   --------------2-------------------------------2---
   --------------------------------------------------
   |---2-3-4-5---5---5-5-5-------------2-3-4-5---5---5-5-5-------
   |-5-------------------------------5---------------------------
 
   ---------------------------------------------------
   ---------------------------------------------------
   ----------------------------------------------2----
   ---------------------------------------------------
   |---2-3-4-5---5-----2-3-4-5---5-----2-3-4-5---5---5-5-5--------
   |-5---------------5---------------5----------------------------
 
   --------------------------------------------------
   --------------------------------------------------
   --------------4-------------------------------4---
   --------------------------------------------------
   |---4-5-6-7---7---7-7-7-------------4-5-6-7---7---7-7-7-------
   |-7-------------------------------7---------------------------
 
   ---------------------------------------------------
   ---------------------------------------------------
   ----------------------------------------------4----
   ------7-6-5-4--------------------------------------
   |---4-5-6-7---7-----------7---7-----4-5-6-7---7---7-7-7--------
   |-7-------------------------------7----------------------------
 
 
   Под текст (в оригинале чуть по-другому, но если играть только на
   одной гитаре, то так лучше):
 
   ------------------------------------------------------
   |-----7-------7-------7-------7-------9-------9-------9-------9---
   |-----7-------7-------7-------7-------9-------9-------9-------9---
   |-----7-------7-------7-------7-------9-------9-------9-------9---
   |-5-------4-------5---------------7-------6-------7---------------
   --------------5-------------------------------7-------
 
   ------------------------------------------------------
   |-----9-------9-------9-------9-------7-------7-------7-------7---
   |-----9-------9-------9-------9-------7-------7-------7-------7---
   |-----9-------9-------9-------9-------7-------7-------7-------7---
   |-7-------6-------7---------------5-------4-------5---------------
   --------------7-------------------------------5-------
 
 
 Интерлюдия:
   -----------------------------------------
   -----------------------------------------
   -----------------------------------------
   --------------7---6---5---4---3~---------
   --5---7~---------------------------------
   |-5---7---8------------------------------------------
   (несколько раз)
 
 



Текст, аккорды и табулатура для песни "Карлик", исполняет "НОМ".
Используемые в песне аккорды можно найти в разделе Как брать аккорды. Аккорды для шестиструнной гитары. Другие песни можно найти на нашем сайте, воспользовавшись алфавитным указателем вверху страницы.


Слушать онлайн Карлик


НОМКарлик на Яндекс.Музыке


 
Ошибка в тексте? Выделите ошибку и нажмите Ctrl+Enter