Вступление:

3|-----------0--------------------------------0-----|
4|-----4---4----0-2-----2-4-5-4---2-0-------0---0---|
5|-2-2---2----------0-0---------------0---2-------2-|
6|--------------------------------------3-----------|

2|-----------------------------------------------------------------0-----|
3|-----------------------0-----------------------------0-------------0---|
4|-----0-2-0-------4---4---0-2-----2-4-5-4-2-0-------0---0-------0-----0-|
5|---2-------0-2-2---2---------0-0-------------0---2-------2---2---------|
6|-3---------------------------------------------3-----------3-----------|

	Hm
Дождь стучится в окно, он будто просит войти
	A
Он будто просит меня его за что-то простить
	G7
И его слезы стекают по стеклянной щеке
Ну, а я забиваю свой последний штакет

И свой последний стакан я сегодня допил
Я забыл, что когда-то кого-то любил
И я убил в себе все, теперь дело за малым -
Убить себя вовсе мне только осталось

Ну, а дождь будет так же стучаться в окно
Оставаясь за тонкой стеклянной стеной
Я пройду вместе с ним, оставив лужи и слякоть
Слезы людей, которые будут плакать

И постучавшись в окно на втором этаже
Дождь расскажет тебе, что меня нет уже
И, может быть, тогда ты, наконец, все поймешь
Но я-то уже пройду - пройду, как этот дождь

Em7                G                 
Стучу по твоей крыше,
                  Hm
но ты не услышишь -
                                     A
Ты, как всегда, ничего не поймешь

	Но не стану я тише,
	Мои капли напишут
	на твоем окне - "Это был дождь"

Я буду стучаться и проситься к тебе
Я буду шуметь в водосточной трубе
И заплакав от невыносимой тоски
На грязной воде я оставлю круги

Я буду стекать с крыш высоких домов
Сотни раз умирая за большую любовь
И каждый раз разбиваясь о мокрый асфальт
Но вряд ли кому-то меня будет жаль

Ведь никто не узнает лица моего
И во влажных глазах не прочтет ничего
Цвета которых ты так не любила
Ну, а теперь уже вовсе забыла

Ты не слышишь меня, когда я говорю
И даже если я несколько раз повторю,
Ты все равно не услышишь и как всегда не поймешь
Еще бы - я ведь теперь просто дождь

	припев.

Осенью в день нашей первой встречи
Я тихо заплачу на твои плечи
Ну, а ты снова спрячешь себя под зонтОМ
О, да, я жалею, что я стал дождем

И я превращусь в злой сильный ливень
От мысли, что я тебе настолько противен
Ну, а ты в который раз ничего не поймешь
Ну, смотри, я люблю тебя! Я - дождь!

	припев.


Текст, аккорды и табулатура для песни "Это был дождь", исполняет "Noize MC".
Используемые в песне аккорды можно найти в разделе Как брать аккорды. Аккорды для шестиструнной гитары. Другие песни можно найти на нашем сайте, воспользовавшись алфавитным указателем вверху страницы.


 
Ошибка в тексте? Выделите ошибку и нажмите Ctrl+Enter