WE THREW GASOLINE ON THE FIRE AND NOW WE HAVE STUMPS FOR ARMS AND NO EYEBROWS
by NOFX. Album : Punkorama 3                                              1/3
Sorry guys - I almost lost my honor. My page clearly says that I'll tab your
favourite song when you ask and I first said to you that I won't tab this song
until all the albums are tabbed. The truth was that I hadn't heard it then and
now when I have it I can say that it goes straight to NOFX-top10! It kicks
ass!!!!!
A=left guitar   B=right guitar   A&B=both
:
# intro #A&B X2     (That chord thing in the beginning is bass)                    
E-----------------------------------|   
B-----------------------------------|   
G---9-------7-------7-------7-6-6---|   
D---7-------7-------7-------7-7-7---|   
A---0-------0-------0-------0-0-0---|   
E-----------------------------------|   
:
# intro-part2 #A&B          !pick-slides!
E---/----all-notes-12X-with-palm-muting------------------------|
B---------------------------------------------------------------|
G---9-------7-------7-------6-------9-------7-------7-----------|
D---7-------7-------7-------7-------7-------7-------7-----------|
A---0-------0-------0-------0-------0-------0-------0-------0---|
E---------------------------------------------------------------|
:
# verse #A    *=play 12X    #=play 6X                               >
E------------------------------------------------------------------->
B----------------------------------------------------------------#-->
G---------------------5-5-5--*------5-5-5-3-3-3--------------#--5--->
D---7-7-7-5-5-5-3-3-3-5-5-5-5-------5-5-5-3-3-3-------3-3-3-5---5--->
A---7-7-7-5-5-5-3-3-3-3-3-3-5-------3-3-3-1-1-1-3-3-3-3-3-3-5---3--->
E---5-5-5-3-3-3-1-1-1-------3-------------------5-5-5-1-1-1-3------->
# verse #B    *=play 12X    #=play 6X                               >
E------------------------------------------------------------------->
B----------------------------*-------------------------------#------>
G--141414121212101010------12------------------------10101012----#-->
D--14141412121210101010101012------101010-8-8-8------10101012--10--->
A--121212101010-8-8-810101010------101010-8-8-8-3-3-3-8-8-810--10--->
E---------------------8-8-8---------8-8-8-6-6-6-5-5-5-----------8--->
>verseA
>-------------------------------------------------------------------3---|
>-------------------------------------------------------------------3---|
>----------------------------*--------------------------------------4---|
>---7-7-7-9-9-9101010101010-9-------5-5-5-5-5-5-3-3-3-3-3-3--#---#--5---|
>-----------------------------------------------------------5---3---5---|
>-------------------------------------------------------------------3---|
>verseB
>-------------------------------------------------------------------3---|
>----------------------------*-------------------------------#---#--3---|
>--141414121212101010------12------------------------10101012--10---4---|
>--14141412121210101010101012------101010-8-8-8------10101012--10---5---|
>--121212101010-8-8-810101010------101010-8-8-8-3-3-3-8-8-810---8---5---|
>---------------------8-8-8---------8-8-8-6-6-6-5-5-5---------------3---|
:
# chorus #A&B   *=play 6X   #=play 3X                           >
E--------------------------------------------------------------->
B----*-------*---------------*-------*-------------------------->
G---5-------3--------*------5-------5--------*-------*-------*-->
D---5-------3-------3-------5-------5-------0-------3-------7--->
A---3-------1-------3-------3-------3-------2-------3-------7--->
E-------------------1-------------------------------1-------5--->
>chorusA&B
>-------------------------------------------------------|
>-------------------------------------------------------|
>----*-------*-------*-------#---#---*-------*----------|
>---3-------5-------7-------7---5---3-------5-----------|
>---3-------5-------7-------7---5---3-------5-------3---|
>---1-------3-------5-------5---3---1-------3-----------|  
WE THREW GASOLINE ON THE FIRE AND...                                      2/3
:
# verse2 #A   *=play 12X    #=play 6X                               >
E------------------------------------------------------------------->
B----------------------------------------------------------------#-->
G---------------------5-5-5--*------5-5-5-3-3-3--------------#--5--->
D---7-7-7-5-5-5-3-3-3-5-5-5-5-------5-5-5-3-3-3-------3-3-3-5---5--->
A---7-7-7-5-5-5-3-3-3-3-3-3-5-------3-3-3-1-1-1-3-3-3-3-3-3-5---3--->
E---5-5-5-3-3-3-1-1-1-------3-------------------5-5-5-1-1-1-3------->
# verse2 #B   *=play 12X    #=play 6X                               >
E------------------------------------------------------------------->
B------------------------------------------------------------------->
G----------------------------*-------------------------------------->
D---7-7-7-9-9-9101010101010-9-------5-5-5-5-5-5-3-3-3-3-3-3--*---*-->
A-----------------------------------------------------------5---7--->
E------------------------------------------------------------------->
>verse2A
>-------------------------------------------------------------------3---|
>-------------------------------------------------------------------3---|
>---------------------5-5-5--*------5-5-5-3-3-3--------------#---#--4---|
>---7-7-7-5-5-5-3-3-3-5-5-5-5-------5-5-5-3-3-3-------3-3-3-5---3---5---|
>---7-7-7-5-5-5-3-3-3-3-3-3-5-------3-3-3-1-1-1-3-3-3-3-3-3-5---3---5---|
>---5-5-5-3-3-3-1-1-1-------3-------------------5-5-5-1-1-1-3---1---3---|
>verse2B
>-------------------------------------------------------------------3---|
>-------------------------------------------------------------------3---|
>---------------------5-5-5--*------5-5-5-3-3-3--------------#---#--4---|
>---7-7-7-5-5-5-3-3-3-5-5-5-5-------5-5-5-3-3-3-------3-3-3-5---3---5---|
>---7-7-7-5-5-5-3-3-3-3-3-3-5-------3-3-3-1-1-1-3-3-3-3-3-3-5---3---5---|
>---5-5-5-3-3-3-1-1-1-------3-------------------5-5-5-1-1-1-3---1---3---|
:
Then play A&BchorusA&B (without last note).
:
# bridge #A&B X2  X=left hand-mute  !second time first part only once!  
E-|---------3-3-3-----3X------------|-----------------------------------|  
B-|---------3-3-3-------------------|-----------------------------------|  
G-|-5-5-XXX-4-4-4-------------------|-5-5-XXX---------------------------|  
D-|-5-5-XXX-5-5-5-2-3-3-XXX-3-3-3-5-|-5-5-XXX-3-3-3-3-5-5-XXX-5-5-5-0---|  
A-|-3-3-XXX-5-5-5-2-3-3-XXX-3-3-3-5-|-3-3-XXX-3-3-3-3-5-5-XXX-5-5-5-2---|  
E-|---------------0-1-1-XXX-1-1-1-3-|---------1-1-1-1-3-3-XXX-3-3-3-----|  
:
# chorus3 #A   *=play 6X   #=play 3X  %=pause                   >
E--------------------------------------------------------------->
B--------------------------------------------------------------->
G---5--------------------------------------------------------*-->
D---5-------------------------------------------------------7--->
A---3-%%%%%%%%%%%%%%%%%%%%%%%%%%%%%%%%%%%%%%%%%%%%%%%%%%%%%-7--->
E-----------------------------------------------------------5--->
# chorus3 #B   %=play 8X palm-muted   *=play 6X   #=play 3X
E--------------------------------------------------------------->
B----%-------%---------------%-------%-------------------------->
G---5-------3--------%------5-------5--------%-------%-------*-->
D---5-------3-------3-------5-------5-------0-------3-------7--->
A---3-------1-------3-------3-------3-------2-------3-------7--->
E-------------------1-------------------------------1-------5--->
:

WE THREW GASOLINE ON THE FIRE AND...                                      3/3
:
>chorus3A
>--------------------------------------------------------------------*--|      
>------------------------------------------------------------------13---|
>----*-------*-------*-------#---#---*-------*---------------------12---|
>---3-------5-------7-------7---5---3-------5----------------------10---|
>---3-------5-------7-------7---5---3-------5-------3-------------------|
>---1-------3-------5-------5---3---1-------3---------------------------|
>chorus3B                                            
>--------------------------------------------------------------------*--|
>------------------------------------------------------------------13---|
>----*-------*-------*-------#---#---*-------*---------------------12---|
>---3-------5-------7-------7---5---3-------5----------------------10---|
>---3-------5-------7-------7---5---3-------5-------3-------------------|
>---1-------3-------5-------5---3---1-------3---------------------------|
:
This rules!!
Tabbed by Jussi Heinonen 31.12.1998.


Текст, аккорды и табулатура для песни "We Threw Gasoline On The Fire", исполняет "NoFX".
Используемые в песне аккорды можно найти в разделе Как брать аккорды. Аккорды для шестиструнной гитары. Другие песни можно найти на нашем сайте, воспользовавшись алфавитным указателем вверху страницы.


 
Ошибка в тексте? Выделите ошибку и нажмите Ctrl+Enter