NoFx - Take two placebos and call me lame
By:Andrew ([email protected])

Intro
e|---------------------------------------------------------------------------|
B|---------------------------------------------------------------------------|
G|---12----15--------15/12-12---12----15--------15/12-12---------------------|
D|-5-12--8-15--8/5-5-15/12-12-5-12--8-15--8/5-5-15/12-12---------------------|
A|-5-10--8-13--8/5-5-13/10-10-5-10--8-13--8/5-5-13/10-10---------------------|
E|-3-----6-----6/3-3----------3-----6-----6/3-3------------------------------|
Verse
e|---------------------------------------------------------------------------|
B|---------------------------------------------------------------------------|
G|---------8-8-8-8-----------------------------------------------------------|
D|-5-5-5-5-8-8-8-8-8-8-8-8-5-5-5-5-5-5-3-3-3-3-3-3---------------------------|
A|-5-5-5-5-6-6-6-6-8-8-8-8-5-5-5-5-5-5-3-3-3-3-3-3---------------------------|
E|-3-3-3-3---------6-6-6-6-3-3-3-3-3-3-1-1-1-1-1-1---------------------------|
Pre Chorus
e|---------------------------------------------------------------------------|
B|---------------------------------------------------------------------------|
G|----------------10-10-10------------------10-10-10-------------------------|
D|-10-10-10-8-8-8-10-10-10---10-10-10-8-8-8-10-10-10-8-8-8-8-8---------------|
A|-10-10-10-8-8-8-8--8--8----10-10-10-8-8-8-8--8--8--8-8-8-8-8---------------|
E|-8--8--8--6-6-6------------8--8--8--6-6-6----------6-6-6-6-6---------------|
Chorus
e|---------------------------------------------------------------------------|
B|---------------------------------------------------------------------8-----|
G|-------------5-5-5-8-8-8-------------5-5-5-8-8-8---------------------8-----|
D|-8-8-8-8-8-8-5-5-5-8-8-8-8-8-8-8-8-8-5-5-5-8-8-8--8-8-8-8-8-8-6-6-6--8-----|
A|-8-8-8-8-8-8-3-3-3-6-6-6-8-8-8-8-8-8-3-3-3-6-6-6--8-8-8-8-8-8-6-6-6--6-----|
E|-6-6-6-5-5-5-------------6-6-6-5-5-5--------------6-6-6-5-5-5-4-4-4--------|


Текст, аккорды и табулатура для песни "Take Two Placebos And Call Me Lame", исполняет "NoFX".
Используемые в песне аккорды можно найти в разделе Как брать аккорды. Аккорды для шестиструнной гитары. Другие песни можно найти на нашем сайте, воспользовавшись алфавитным указателем вверху страницы.


 
Ошибка в тексте? Выделите ошибку и нажмите Ctrl+Enter