intro
e-------------------------------------------
B-------------------------------------------
G-------------------------------------------
D-------------------------------------------
A-00-5-3h5p3-00-5-3h5p3-00-5-3h5p3-00-7-00-6
E-------------------------------------------

when the bass and other guitar come in it changes to this
e--------------------I------------------
B--------------------I------------------
G--------------------I------------------
D--------------------I------------------
A-00-7-00-6-00-3-5-3-I-00-7-00-6--------
E--------------------I-----------3h5-5-5

verse 
e------------------------------I------
B------------------------------I------
G-------5522-------------------I------
D-------3300-------------------I-7--7-
A-777777----55555--00-7-00-6---I-7--7-
E-555555----33333--------------I-5--5-
  PM........................

chorus (just the chords) ^=4x *=8x #=16x
e----------------------------------------
B----------------------------------------
G----------5*------------------5*--------
D--7*--3*--5---5^--6^--7*--3*--5---7#--3*
A--7---3---3---5---6---7---3---3---7---3-
E--5---1-------3---4---5---1-------5---1-

intro again
verse again
chorus again
clean guitar part (sorry, still figuring out)
solo(sorry, im close, but not done learing)
verse
chorus

outro
e-------------------------I------I---
B-------------------------I------I---
G-------------------------I------I---
D-------------------------I--7-7-I-7-
A-0-0-0-3p0---------------I--7-7-I-7-
E-----------3-2-2h3p2p0-0-I--5-5-I-5-

thats it for the most part.
ill be back and put up the solo parts once i get them down completely.


Текст, аккорды и табулатура для песни "Seperation Of Church And Skate", исполняет "NoFX".
Используемые в песне аккорды можно найти в разделе Как брать аккорды. Аккорды для шестиструнной гитары. Другие песни можно найти на нашем сайте, воспользовавшись алфавитным указателем вверху страницы.


 
Ошибка в тексте? Выделите ошибку и нажмите Ctrl+Enter