PERFECT GOVERNMENT - NOFX
From: [email protected]

-----------------------------------------------------------  w/ out distortion
-----------------------------------------------------------
---15-17-19-20---------15----------------------------------
---------------------16-14----16---------------------------
-------------------------------------16-17-14-12-----------
---------------------------------------------------4-------

w/ dist.

-------------------------------------------------------------------------------
-11(bend 2x)-10-8-10-10(full bend)-8---8--------------12-13-13h15-13-12-13-12--
-------------------------------------------9---9-7-9---------------------------
-------------------------------------------------------------------------------
-------------------------------------------------------------------------------
-------------------------------------------------------------------------------

-------------------------------------------   
-------12----------------------------------
---14-----14(full bend)-12-----------------
--------------------------------14-12-14---
-------------------------------------------
-------------------------------------------

w/ out dist.
---3---X---0---X--     (yeah I'd love to watch the world
---0---3---0---1--      from the white house.....)--->  G5toB5toC5toC#5
---0---2---0---0--
---0---0---2---2--      (how do they sleep at night?...)--->G5toE5 (


Текст, аккорды и табулатура для песни "Perfect Government", исполняет "NoFX".
Используемые в песне аккорды можно найти в разделе Как брать аккорды. Аккорды для шестиструнной гитары. Другие песни можно найти на нашем сайте, воспользовавшись алфавитным указателем вверху страницы.


 
Ошибка в тексте? Выделите ошибку и нажмите Ctrl+Enter