MY FRIENDS BY NOFX
ALBUM: MAXIMUM ROCK & ROLL


By:Stash Fortier([email protected])

PART 1
e|--------------------------------------------------------------------|
B|--------------------------------------------------------------------|
G|--------------------------------------------------------------------|
D|-7--5--8---5-7-5-8-5--7-7-7-7-7-7-7-7--5--8-8-8-8-8-8-8-8--5--------|
A|-7--5--8---5-7-5-8-5--7-7-7-7-7-7-7-7--5--8-8-8-8-8-8-8-8--5--------|
E|-5--3--6---3-5-3-6-3--5-5-5-5-5-5-5-5--3--6-6-6-6-6-6-6-6--3--------|

e|--------------------------------------------------------------------|
B|--------------------------------------------------------------------|
G|--------------------------------------------------------------------|
D|-7-7-7-7-7-7-7-7--5--3-3-3-3-3-3-3-3--------------------------------|
A|-7-7-7-7-7-7-7-7--5--3-3-3-3-3-3-3-3--------------------------------|
E|-5-5-5-5-5-5-5-5--3--1-1-1-1-1-1-1-1--------------------------------|

PART 2
e|--------------------------------------------------------------------|
B|--------------------------------------------------------------------|
G|--------------------------------------------------------------------|
D|-7-7-7-7-7-7-7-7--5--8-8-8-8--8-8--10-10--8-8--5---X5---------------|
A|-7-7-7-7-7-7-7-7--5--8-8-8-8--8-8--10-10--8-8--5--------------------|
E|-5-5-5-5-5-5-5-5--3--6-6-6-6--6-6--8--8---6-6--3--------------------|

e|--------------------------------------------------------------------|
B|--------------------------------------------------------------------|
G|--------------------------------------------------------------------|
D|-7-7-7-7-7-7-7-7--5--3-3-3-3-3-3-3-3--------------------------------|
A|-7-7-7-7-7-7-7-7--5--3-3-3-3-3-3-3-3--------------------------------|
E|-5-5-5-5-5-5-5-5--3--1-1-1-1-1-1-1-1--------------------------------|

PART 3   GUITAR 1
e|------|-------------------------------------------------------------|
B|------|-------------------------------------------------------------|
G|------|-------------------------------------------------------------|
D|-7--5-|-7-7-7-7--5--8-8-8-8--5--7-7-7-7--5--8-8-10-8--X3------------|
A|-7--5-|-7-7-7-7--5--8-8-8-8--5--7-7-7-7--5--8-8-10-8----------------|
E|-5--3-|-5-5-5-5--3--6-6-6-6--3--5-5-5-5--3--6-6-8--6----------------|

PART 3 GUITAR 2
e|--------------------------------------------------------------------|
B|--------------------------------------------------------------------|
G|--------------------------------------------------------------------|
D|-7--7--8--8-10-8--7-------------------------------------------------|
A|--------------------------------------------------------------------|
E|--------------------------------------------------------------------|

PART 4
e|--------|------------------------------------|----------------------|
B|--------|------------------------------------|----------------------|
G|--------|------------------------------------|----------------------|
D|-8-10-7-|-7-10-8--6-6-6-6--10-8-7-10-8-7--X3-|-7-10-8-6-10-8--------|
A|-8-10-7-|-7-10-8--6-6-6-6--10-8-7-10-8-7-----|-7-10-8-6-10-8--------|
E|-6-8--5-|-5-8--6--4-4-4-4--8--6-5-8--6-5-----|-5-8--6-4-8--6--------|

e|--------------------------------------------------------------------|
B|--------------------------------------------------------------------|
G|----------5-5-5-5--10-10-10-10-9--9-9--9-9--X2----------------------|
D|-7-7-7-7--5-5-5-5--10-10-10-10-9--9-9--9-9--------------------------|
A|-7-7-7-7--3-3-3-3--8--8--8--8--7--7-7--7-7--------------------------|
E|-5-5-5-5------------------------------------------------------------|

RPEAT ALL PART 4

LYRICS UNAVAILABLE DUE TO GARBLED LYRICS(THE WHOLE ALBUM'S LIKE THAT)

[email protected] for comments/questions


Текст, аккорды и табулатура для песни "My Friends", исполняет "NoFX".
Используемые в песне аккорды можно найти в разделе Как брать аккорды. Аккорды для шестиструнной гитары. Другие песни можно найти на нашем сайте, воспользовавшись алфавитным указателем вверху страницы.


 
Ошибка в тексте? Выделите ошибку и нажмите Ctrl+Enter