KIDS OF THE K-HOLE by NOFX. Album : So long and thanks for all the shoes  1/2
(1997)
A=Melvin   B=El Hefe   A&B=both
Great song, but I didn't realize the lyrics. What is a k-hole?
:
# intro #A&B X2 !play all notes X6!  %=pause  !pick-slide last time!
E-----------------------------------|
B-----------------------------------|
G--14-------------------------------|
D--14-------2-------4-------7---7---|
A--12-%%%%%-4-%%%%%-5-%%%%%-7---7---|
E---------------------------5---5---|
:
# into-verse #A&B !play all notes X6!
E---------------------------|
B---------------------------|
G-----------5---------------|
D---3---3---5-------3---3---|
A---3---3---3---2---3---3---|
E---1---1-------3---1---1---|
:
# verse #A   !play all notes X12!   (An 18 hour holiday...)
E-----------------------------------------------|
B-----------------------------------------------|
G---7--------------------------------------10---|
D---7-------7-------2-------0-------3------10---|
A---5-------7-------3-------0-------3-------8---|
E-----------5-------3-------2-------1-----------|
# verse #B   !play all notes X12!
E-----------------------------------------------|
B-----------------------------------------------|
G------------------------------------------10---|
D------------------------------------------10---|
A---8-------7-------7-------5-------3-------8---|
E-----------------------------------------------|
:
# verse2 #A   *=play 12X            h=hammer-on                     >
E-----------------------------------------------------6/8----------->
B----*---------------*--------------------------------6/8-6h8-6-66-->
G---5---------------3----------------*--------------5----------8--5->
D---5---------------3---------------3---------------5--------------->
A---3---------------1---------------3---------------3--------------->
E-----------------------------------1------------------------------->
# verse2 #B   *=play 12X                                            >
E------------------------------------------------------------------->
B----*---------------*-------------------------------*-------------->
G---5---------------3----------------*--------------5--------------->
D---5---------------3---------------3---------------5--------------->
A---3---------------1---------------3---------------3--------------->
E-----------------------------------1------------------------------->
>verse2A
>-------------------------------------------------------------------|
>----*---------------*----------------------------------------------|
>---5---------------3----------------*------------------------------|
>---5---------------3---------------3---------------3---------------|
>---3---------------1---------------3---------------3---------------|
>-----------------------------------1---------------1---------------|
>verse2B
>-------------------------------------------------------------------|
>----*---------------*----------------------------------------------|
>---5---------------3----------------*------------------------------|
>---5---------------3---------------3-------------------------------|
>---3---------------1---------------3---------------3---------------|
>-----------------------------------1-------------------------------|
:
>>>>>>>>>>to next page...
:
:
KIDS OF THE K-HOLE                                                        2/2
:
# verse3 #A&B *=play 12X   #=play 6X   (Somewhere between eden...)
E-------------------------------------------------------------|
B----------*-----*-----------------*-----------*-----#-----*--|
G----*---10----12------#-----*---10------#---10-----7---#10---|
D---7----10----12----10---#-7----10----10---#10-----7--7-10---|
A---7-----8----10----10--5--7-----8----10--5--8-----5--7--8---|
E---5-----------------8--7--5-----------8--7-----------5------|
:
# verse4 #A   !B plays verse2B!   *=play 12X    b=bend-up           >
E------------------------------------------------------------------->
B----*---------------*-----------------------------------------16--->
G---5---------------3----------------*----------------17-15-15b--17->
D---5---------------3---------------3--------------10-17-15--------->
A---3---------------1---------------3--------------10--------------->
E-----------------------------------1---------------8--------------->
>verse4A
>-------------------------------------------------------------------|
>----*---------------*----------------------------------------------|
>---5---------------3----------------*------------------------------|
>---5---------------3---------------3---------------3---------------|
>---3---------------1---------------3---------------3---------------|
>-----------------------------------1---------------1---------------|
:
# verse5 #A   *=play 12X   #=play 6X    (It may sound good to you...)
E-------------------------------------------------------|
B----------*-----------*-----*--------------------------|
G----*---10------#---10-----7------*-----*-----*--------|
D---7----10----10---#10-----7-----7-----2-----0-----3---|
A---7-----8----10--5--8-----5-----7-----3-----0-----3---|
E---5-----------8--7--------------5-----3-----2-----1---|
# verse5 #B   *=play 12X   #=play 6X
E-------------------------------------------------------|
B----------*-----------*--------------------------------|
G--------10------#---10---------------------------------|
D---7----10----10---#10------*-----*-----*-----*--------|
A---7-----8----10--5--8-----8-----7-----7-----5-----3---|
E---5-----------8--7------------------------------------|
:
There is it!
Tabbed by Jussi Heinonen 22.08.1998.


Текст, аккорды и табулатура для песни "Kids Of The K-hole", исполняет "NoFX".
Используемые в песне аккорды можно найти в разделе Как брать аккорды. Аккорды для шестиструнной гитары. Другие песни можно найти на нашем сайте, воспользовавшись алфавитным указателем вверху страницы.


 
Ошибка в тексте? Выделите ошибку и нажмите Ctrl+Enter