HIT IT HOLD IT BACK by NOFX
ALBUM: MAXIMUM ROCK AND ROLL

By:Stash Fortier([email protected])

PART 1
e|--------------------------------------------------------------------|
B|--------------------------------------------------------------------|
G|-3-3-3-3---6-6-6---5------------------------------------------------|
D|-3-3-3-3---4-4-4---3------------------------------------------------|
A|-1-1-1-1------------------------------------------------------------|
E|--------------------------------------------------------------------|

PART 2
e|--------------------------------------------------------------------|
B|--------------------------------------------------------------------|
G|------------------4-4-4--3-------------------6-6-6--5---------------|
D|------------------4-4-4--3-------------------4-4-4--3---x6----------|
A|-1-1-3-1-1-4-1-1--2-2-2--1--1-1-3-1-1-4-1-1-------------------------|
E|--------------------------------------------------------------------|

PART 3
e|--------------------------------------------------------------------|
B|--------------------------------------------------------------------|
G|-----5-----5---5--8--7----------------------------------------------|
D|-----3-----3---3--6--5--x4------------------------------------------|
A|-X-X---X-X----------------------------------------------------------|
E|-X-X---X-X----------------------------------------------------------|

PART 4
e|--------------------------------------------------------------------|
B|--------------------------------------------------------------------|
G|-5--6--5--6--4-------5--6--5-4-3------------------------------------|
D|-3--4--3--4--4---x3--3--4--5-4-3------------------------------------|
A|-------------2-------------3-2-1------------------------------------|
E|--------------------------------------------------------------------|

PART 5
e|--------------------------------------------------------------------|
B|--------------------------------------------------------------------|
G|-3-3-3-3-----------3-3-3-3--8-8-8-8--3-3-3-3-----------3-3-3-3------|
D|-3-3-3-3--4-4-4-4--3-3-3-3--6-6-6-6--3-3-3-3--4-4-4-4--3-3-3-3------|
A|-1-1-1-1--4-4-4-4--1-1-1-1-----------1-1-1-1--4-4-4-4--1-1-1-1------|
E|----------2-2-2-2-----------------------------2-2-2-2---------------|

e|--------------------------------------------------------------------|
B|--------------------------------------------------------------------|
G|-------------------------5-5-5-5-5--6-------------------------5-5-5-|
D|-6-6---8-8---6-6---8-8---3-3-3-3-3--4--6-6---8-8---6-6---8-8--3-3-3-|
A|-6-6---8-8---6-6---8-8-----------------6-6---8-8---6-6---8-8--------|
E|-4-4---6-6---4-4---6-6-----------------4-4---6-6---4-4---6-6--------|

e|--------------------------------------------------------------------|
B|--------------------------------------------------------------------|
G|-6-6-6-------------------------5-5-5-5--6-6-6-6---------------------|
D|-4-4-4--6-6---8-8---6-6---8-8--3-3-3-3--4-4-4-4--6-6---8-8---6-6----|
A|--------6-6---8-8---6-6---8-8--------------------6-6---8-8---6-6----|
E|--------4-4---6-6---4-4---6-6--------------------4-4---6-6---4-4----|

e|--------------------------------------------------------------------|
B|--------------------------------------------------------------------|
G|------5--6--3-------------------------------------------------------|
D|-8-8--3--4--3-------------------------------------------------------|
A|-8-8--------1-------------------------------------------------------|
E|-6-6----------------------------------------------------------------|

PART 6
e|--------------------------------------------------------------------|
B|--------------------------------------------------------------------|
G|-3-3-3-----6-5------3-3-3--6----ALL PART 6 X2----------------------|
D|-3-3-3--4--6-5--x3--3-3-3--6---------------------------------------|
A|-1-1-1--4--4-3------1-1-1--4---------------------------------------|
E|--------2-----------------------------------------------------------|

PART 7
e|--------------------------------------------------------------------|
B|--------------------------------------------------------------------|
G|-3--6--5-----3--------6-5-3-------6-5-3-------6-5-3----3--3---6-5-3-|
D|-3--6--5--X4-3--3-4---6-5-3--4-5--6-5-3--4-5--6-5-3--6-3--3---6-5-3-|
A|-1--4--3-----1--3-4---4-3-1--4-5--4-3-1--4-5--4-3-1--6-1--1---4-3-1-|
E|----------------1-2----------2-3---------2-3---------4--------------|

LYRICS UNAVAILABLE DUE TO INCOMPREHENSION

[email protected] for comments/questions


Текст, аккорды и табулатура для песни "Hit It Hold It Back", исполняет "NoFX".
Используемые в песне аккорды можно найти в разделе Как брать аккорды. Аккорды для шестиструнной гитары. Другие песни можно найти на нашем сайте, воспользовавшись алфавитным указателем вверху страницы.


 
Ошибка в тексте? Выделите ошибку и нажмите Ctrl+Enter