------------------------------------------------------------------
		    DRUGS ARE GOOD - NOFX
------------------------------------------------------------------

By: Dave Wilson ([email protected] for requests)
Member of the Bass Tab Archive Tabbing Army

>means strum 8 times  >> means strum 16 times

Intro (x4)
G|---------------------------------------------------------------|
D|---------------------------------------------------------------|
A|-12-12-12-12--12-12-12-12--12-12-12-12--12-12-12-12-(/)-On 4th-|
E|---------------------------------------------------------Time--|

Intro 2
G|---------------------------------------------------------------|
D|------------------------------3-3-3-3--------------------------|
A|--------3-3-3-3-------3-3-3--------------------------3-3-3-3---|
E|5-5-5-3---------0-3-0-------3---------0-3-0--5-5-5-3-----------|

G|---------------------------------------------------------------|
D|-----------9-10-9-----9-10-9-----------------------------------|
A|--------10--------10---------10------------------3-3-3-3-------|
E|-0-3-0---------------------------0-3-0--5-5-5-3----------0-3-0-|

G|---------------------------------------------------------------|
D|---------3-3-3-3-----------------------------------------------|
A|3-3-3-----------------------------3-3-3-3----------------------|
E|------3-----------0-3-0--5-5-5-3-----------0-3-0---3>>---------|

Verse
G|---------------------------------------------------------------|
D|---------------------------------------------------------------|
A|-----3>--3>---------------------3-3-3-3---------10>------------|
E|-5>---------1>--0-3-0--5-5-5-3-----------0-3-0-------0-3-0-----|

G|---------------------------------------------------------------|
D|---------------------------------------------------------------|
A|-----3>--3>----------------------3-3-3-3-----------------------|
E|-5>----------1>--0-3-0--5-5-5-3-----------0-3-0--3>------------|

Chorus
G|------------------------------------|-------------x2--|--------|
D|------------------------------------|-----------------|--------|
A|-------------------3-3-3------------|-1-1-1---------3>|--3>----|
E|-1-1-1--3-3-3--5>---------3-3-3--1>-|--------1-1-1----|--------|
Intro 2
Verse
Chorus

Outro
G|---------------------------------------------------------------|
D|--------------------------------------3-3-3-3------------------|
A|-----------3-3-3-3-----------3-3-3-----------------------------|
E|-5-5-5-3-------------0-3-0---------3------------0-3-0----------|

G|---------------------------------------------------------------|
D|---------------------------------------------------------------|
A|-----------3-3-3-3----------10---------------------------------|
E|-5-5-5-3-------------0-3-0-------------------------------------|


Текст, аккорды и табулатура для песни "Drugs Are Good", исполняет "NoFX".
Используемые в песне аккорды можно найти в разделе Как брать аккорды. Аккорды для шестиструнной гитары. Другие песни можно найти на нашем сайте, воспользовавшись алфавитным указателем вверху страницы.


 
Ошибка в тексте? Выделите ошибку и нажмите Ctrl+Enter