BEER BONG by NOFX. Album : I Heard They Suck Live (1994)                  1/2
Great song with impression of heavy music.
A=El Hefe   B=Melvin   A&B=both
:
# intro #A
E---------------------------------------------------------------------|
B---------------------------------------------------------------------|
G---5-5-5--------------------7-7-7------------------------------------|
D---5-5-5--------------------7-7-7--------------------2-----------2---|
A---3-3-3--------------------5-5-5--------------------2-----------2---|
E-----------------------------------------------------0-----------0---|
# intro #B
E-----------------------------------------------------0---------------|
B-----------------------------------------------------0---------------|
G---5-5-5---------------------------------------------1---------------|
D---5-5-5--------------------0-0-0--------------------2-----------2---|
A---3-3-3--------------------0-0-0--------------------2-----------2---|
E-----------------------------------------------------0-----------0---|
:
# verse #A
E-|-/--palm-muted----|-/-p-m------|-------------|-|
B-|--------4X---------|-----4X------|-----4X------|-|
G-|-------------------|---------9---|-------------|-|
D-|-------------------|---------9---|-2-5-5-2-2-2-|-|
A-|---5---5---22-2-22-|---5---5-7---|-2-5-5-2-2-2-|-|
E-|-0-3-0-3-0-00-0-00-|-0-3-0-3-----|-0-3-3-0-0-0-|-|
# verse #B
E-|-/--palm-muted----|-/-p-m------|-------------|-|
B-|--------4X---------|-----4X------|-----4X------|-|
G-|-------------------|---------9---|-91212-9-9-9-|-|
D-|-------------------|---------9---|-91212-9-9-9-|-|
A-|---5---5---22-2-22-|---5---5-7---|-71010-7-7-7-|-|
E-|-0-3-0-3-0-00-0-00-|-0-3-0-3-----|-------------|-|
:
# chorus #A&B
E-|---------2X----------|--------------------------------|
B-|---------------------|--------------------------------|
G-|-7-7-7-5-5-5-9-9-9---|-7-9---7-9---7-9---7-9---7777---|
D-|-7-7-7-5-5-5-9-9-9---|-7-9---7-9---7-9---7-9---7777---|
A-|-5-5-5-3-3-3-7-7-7---|-5-7---5-7---5-7---5-7---5555---|
E-|---------------------|--------------------------------|
:
# bridge #A X2
E---------------------------------------------|END-1|-------END-2------------|
B---------------------------------------------|-----|------------------------|
G---------------7-7-7-7777---------------7-7-7|7777-|-9---7-9---7-9---7-9----|
D---4-4-4-5-5-5-5-5-5-7777---4-4-4-5-5-5-5-5-5|7777-|-9---7-9---7-9---7-9---2|
A---------------------5555--------------------|5555-|-7---5-7---5-7---5-7---2|
E---------------------------------------------|-----|-----------------------0|
# bridge #B X2
E---------------------------------------------|END-1|-------END-2------------|
B---------------------------------------------|-----|------------------------|
G---------------------7777--------------------|7777-|-9---7-9---7-9---7-9----|
D---4-4-4-5-5-5-5-5-5-7777---4-4-4-5--7--5-5-5|7777-|-9---7-9---7-9---7-9---2|
A---------------------5555--------------------|5555-|-7---5-7---5-7---5-7---2|
E---------------------------------------------|-----|-----------------------0|
:
Then play AverseA or BverseB and A&BchorusA&B.
:
:
:
:
:
:
:
:
:
:
BEER BONG                                                                 2/2
:
# outro #A X2
E---------------------------------------------|END-1|-------END-2-----------|
B---------------------------------------------|-----|-----------------------|
G---------------7-7-7-7777---------------7-7-7|7777-|-9---7-9---7-9---7-----|
D---4-4-4-5-5-5-5-5-5-7777---4-4-4-5-5-5-5-5-5|7777-|-9---7-9---7-9---7-2---|
A---------------------5555--------------------|5555-|-7---5-7---5-7---5-2---|
E---------------------------------------------|-----|-------------------0---|
# outro #B X2   *=play 6X
E---------------------------------------------|END-1|-------END-2-----------|
B---------------------------------------------|-----|-----------------------|
G---------------------7777--------------------|7777-|--*-----*-----*--------|
D---4-4-4-5-5-5-5-5-5-7777---4-4-4-5--7--5-5-5|7777-|-2-----6-----9----14---|
A---------------------5555--------------------|5555-|-----------------------|
E---------------------------------------------|-----|-----------------------|
:
Get ready for Six Pack Girls!
Tabbed by Jussi Heinonen 02.01.1999.


Текст, аккорды и табулатура для песни "Beer Bong Live", исполняет "NoFX".
Используемые в песне аккорды можно найти в разделе Как брать аккорды. Аккорды для шестиструнной гитары. Другие песни можно найти на нашем сайте, воспользовавшись алфавитным указателем вверху страницы.


 
Ошибка в тексте? Выделите ошибку и нажмите Ctrl+Enter