Song Title: Spiderwebs
Artist: No Doubt
Album: Tragic Kingdom
----------------------------------------------

Tabbed By JP Fernandez

INTRO

G|---------------------------------------------------------
D|-----0-3-0-------------------------------1-0---0-1-0-----
A|-1----------1--------0-3--------0-1-0--------3-------3-0-
E|---------------1--1------1--3---------3------------------

G|---------------------------------------------------------
D|-----0-3-0-------------------------------1-1-0-0---------
A|-1----------1--------0-3--------0-1-0------------3-3-1-0-
E|---------------1--1------1--3---------3------------------

VERSE 1

G|--------------------------------------------------------
D|------------------0/1--0---------------------0--1-3-
A|-1--0-1--0-1------------3--1--0-1--0-1-----------
E|--------------------------------------------------------

G|-----------------------------------------------------------
D|-----------------0/1--0---------------------0/1--0-----
A|-1--0-1--0-1-----------3--1--0-1--0-1----------3-0-
E|-------------------------------------------------------------

G|--------------------------------------------------0--3-------------
D|-----------------0/1--0-------------------------------0--3-------
A|-1--0-1--0-1-----------3--1--0-1--0-1--3--------------------
E|---------------------------------------------------------------------
                                     
CHORUS
                                   B
G|-------1-------0-----------------------------------------------1-----------
D|-1------1--3-----3-0---------------------------------------1------1--3-
A|-------------------------1-1-1-1-1-1-1----------------------------------
E|--------------------------------------------3-3-3-3-3-3-3--------------

G|----------------------------------------------------------------------------
-----------
D|-----------------------------------------------------------------1-1-0-0----
---------
A|-1-1-1-1-1-1-1-1------------------------------------------------------3-3-1-
0-
E|----------------------1-1-1-1-1-1-1-1-3-3-3-3-3-3-3-3----------------------

G|--------------------------------------------0-0-0-0-0-0-0-0-----------------
-----
D|----------------------3-3-3-3-3-3-3-3-----------------------1-1-0-0---------
---
A|-1-1-1-1-1-1-1-1------------------------------------------------------3-3-1-
0-
E|----------------------------------------------------------------------------
-----------

VERSE 2

G|------------------------------------------------------------
D|-----------------0/1--0--------------------0--3-0-------
A|-1--0-1--0-1----------3--1--0-1--0-1----------3-1-
E|------------------------------------------------------------

G|--------------------------------------------2/3/2---0----------
D|-----------------0/1--0--------------------------------3-------
E|-1--0-1--0-1-----------3-1--0-1-0-1-----------------3-1-
A|------------------------------------------------------------------

G|----------------------------------------------------0--3-
D|-------------0/1--0-------------------------0--3-------
A|-0-1--0-1-----------3--1--0-1--0-1--3-------------
E|----------------------------------------------------------

CHORUS                                  
                                   B
G|-------1--------0-------------------------------------------------------1---
---
D|-1-------1--3-----3-0-----------------------------------------1------1--3-
A|--------------------------1-1-1-1-1-1-1------------------------------------
E|----------------------------------------------3-3-3-3-3-3-3-----------------

G|----------------------------------------------------------------------------
---------
D|------------------------------------------------------------------1-1-0-0---
------
A|-1-1-1-1-1-1-1-1----------------------------------------------------3-3-1-0-
E|----------------------1-1-1-1-1-1-1-1-3-3-3-3-3-3-3-3------------------

G|--------------------------------------------0-0-0-0-0-0-0-0-----------------
-
D|-----------------------3-3-3-3-3-3-3-3------------------1-1-0-0---------
A|-1-1-1-1-1-1-1-1---------------------------------------------------3-3-1-0-
E|----------------------------------------------------------------------------
-----

G|----------------------------------------------------- 


Текст, аккорды и табулатура для песни "Spiderwebs", исполняет "No Doubt".
Используемые в песне аккорды можно найти в разделе Как брать аккорды. Аккорды для шестиструнной гитары. Другие песни можно найти на нашем сайте, воспользовавшись алфавитным указателем вверху страницы.


 
Ошибка в тексте? Выделите ошибку и нажмите Ctrl+Enter