THIS ISNT MY TAB BUT I THOUGHT I WOULD SHARE IT CUZ ITS A GOOD BASS TAB!

Intro(bass enters at 0:02)
G:--------------------------------------------------------------------|
D:--------------------------------4------4---2h4---7------7---5h7-----|
A:-7---7---5h7----------7---5h7---------------------------------------|x1
E:---------------7--------------------------------------------------7-|

Verse 1
G:--------------------------------------------------------------------|
D:--------------------------------4------4---2h4---7------7---5h7-----|
A:-7---7---5h7----------7---5h7---------------------------------------|x4
E:---------------7--------------------------------------------------7-|

G:-----------------------------------|
D:-3---3---1h3-----3--1--------------|
A:----------------------5-3---0-2-4--|x1
E:--------------------------2--------|

Pre Chorus
G:-----1-3~--1------------------------------------------------------|
D:---3---------4-------------1-3---------4~--------------444-----4--|
A:-1-----------------1-3-4~----------1-4-----4-1-----1-4-------4----|x1
E:---------------4~--------------2~--------------2~----------2------|

G:-----1-3~--1------------------------------------------------------|
D:---3---------4-------------1-3---------4~-------------------------|
A:-1-----------------1-3-4~----------1-4-----4-1--------------------|x1
E:---------------4~--------------2~--------------2~~~~~-------------|

Chorus 1
G:----------------------------------|  |-----------------------------------|
D:-------1---1---1------------------|  |-----------------------------------|
A:-1~--4---4-----------1-4-1-4---4--|x4|-----------------------------------|x1
E:-----------------4~---------------|  |-2~~~--------/---12~~~------------|

Verse 2
G:----------|
D:----------|
A:-7---7----|x1
E:----------|

Rest until 1:30

G:--------------------------------------------------------------------|
D:--------------------------------4------4---2h4---7------7---5h7-----|
A:-7---7---5h7----------7---5h7---------------------------------------|x2
E:---------------7--------------------------------------------------7-|

G:-----------------------------------|
D:-3---3---1h3-----3--1--------------|
A:----------------------5-3---0-2-4--|x1
E:--------------------------2--------|

Repeat:
Pre Chorus

Chorus 2
G:----------------------------------|
D:-------1---1---1------------------|
A:-1~--4---4-----------1-4-1-4---4--|x4
E:-----------------4~---------------|

Bridge
G:--------------------------------------------------------------------------|
D:--------------------------------------------------------------------------|
A:--------------------------------------------------------------------------|x2
E:-7---7---5h7-----0h7---7---5h7-----0h7---7---5h7-----0h7---7---5h7-----0h-|

G:------------------------------------------------------------------------|
D:---------------------------------------------------------3-1------------|
A:-------------------------------------------------------------3---0-2-4--|x1
E:-7---7---5h7-----0h7---7---5h7-----0h7---7---5h7------1--------2--------|

Repeat:
Pre Chorus

Chorus 3
G:----------------------------------|
D:-------1---1---1------------------|
A:-1~--4---4-----------1-4-1-4---4--|x12
E:-----------------4~---------------|


Текст, аккорды и табулатура для песни "Its My Life", исполняет "No Doubt".
Используемые в песне аккорды можно найти в разделе Как брать аккорды. Аккорды для шестиструнной гитары. Другие песни можно найти на нашем сайте, воспользовавшись алфавитным указателем вверху страницы.


 
Ошибка в тексте? Выделите ошибку и нажмите Ctrl+Enter