No Doubt - Happy Now?
Submitted By: Anjel
EMail: [email protected]
(G. Stefani / T. Dumont / T. Kanal)
Transcribed by Adam Yanalunas 


     intro 
G---|-----------------------------------------------
D-4-|-----------------------------------------------
A-4-|-----------------------------------------------
E---|-10--8--8--8--8--8--8--8--6--6--6--6--6--6--6-
       
    
G----------------------------------------
D----------------------------------------
A-----------------------8--8--6--8--8--8-
E--4--4--4--4--4--4--4-------------------

        
G-|-------------------------------------------------
D-|-------------------------------------------------
A-|-------------------------------------------------
E-|--5--5--5--5--5--5--5--5--5--5--5--5--5--5--5--5-
              
                 
G------------------------------------------------
D------------------------------------------------
A-5--5--5--5--5--5--5--5-------------------------
E-------------------------1--1--1--1--1--1--1--1-
                
                
G-|--------------------------------
D-|--7-----7--------5--------5-----
A-|----5-----7--------5--------5---
E-|------5-----5--------3--------3-
            
                    
G-|-------------------------------------------------
D-|-------------------------------------------------
A-|-------------------------------------------------
E-|--8--8--8--8--8--8--8--8--6--6--6--6--6--6--6--6-
              
               
G------------------------------------------------
D------------------------------------------------
A------------------------------------------------
E-4--4--4--4--4--4--4--4--1--1--1--1--1--1--1--1-
      
          
G-|-------------------------------------------------
D-|-------------------------------------------------
A-|-------------------------------------------------
E-|--8--8--8--8--8--8--8--8--6--6--6--6--6--6--6--6-
          
         
G-----------------------------------------------------------
D-----------------------------------------------------------
A-------------------------8--8--6--8--8--8------------------
E-4--4--4--4--4--4--4--4------------------------------------
         
         
G-|---------------------------------------------------------------
D-|---------------------------------------------------------------
A-|-----8--10--8---------6--8--6--------4--6--4-------------------
E-|--8------------10--6-----------6--4-----------4--1--1--1--1--1-
       
       
G-||-----------------------------------------||
D-||*---------------------------------------*||
A-||*----8--8--8--6-------------------------*||
E-||--8--------------8--6--2--2--4--2--2--4--||
       
        
G-||----------------------------------------||
D-||*--------------------------------------*||
A-||*-----6--6--6--4-----------------------*||
E-||---6--------------4--0--0--2--0--0--2---||
        
   just repeat this till the end
G-|-------------------------
D-|-------------------------
A-|-------------------------
E-|--8~~~-----6~~~-----4~~~-
         
   Added by myself. Not part of the song.
G-|-------------
D-|--------6~~~-
A-|-----6-------
E-|-4-----------


Текст, аккорды и табулатура для песни "Happy Now", исполняет "No Doubt".
Используемые в песне аккорды можно найти в разделе Как брать аккорды. Аккорды для шестиструнной гитары. Другие песни можно найти на нашем сайте, воспользовавшись алфавитным указателем вверху страницы.


 
Ошибка в тексте? Выделите ошибку и нажмите Ctrl+Enter