Проигрыш
   Cm
E|-------------------------------------------------------------|
B|---4-----4-----4-----4-----4-----4-----4-----4---------------|
G|---5-----5-----5-----5-----5-----5-----5-----5---------------|
D|------5-----5-----5-----5-----5-----5-----5-----5------------|
A|-------------------------------------------------------------|
E|-------------------------------------------------------------|
 
Версия 1
   Cm     Gm  Fm   B Gm
E|-------------------------------------------------------------|
B|-4---4---4---4---3----3---1-----1-----3-----3-----3-----3----|
G|-5---5---5---5---3----3---1-----1-----3-----3-----3-----3----|
D|---5---5---5---5----5---5----3-----3-----3-----3-----5----5--|
A|-------------------------------------------------------------|
E|-------------------------------------------------------------|
     ""
  Fm B   Cm  Gm    Fm  B
E|-------------------------------------------------------------|
B|-1---1---3---3---4---4---3-----3-----1-----1-----3-----3-----|
G|-1---1---3---3---5---5---3-----3-----1-----1-----3-----3-----|
D|---3---3---3---3---5---5----5-----5-----3-----3-----3-----3--|
A|-------------------------------------------------------------|
E|-------------------------------------------------------------|
  Gm Cm   Fm  B    Cm  Gm
E|-------------------------------------------------------------|
B|-3---3---4---4---1---1---3-----3-----4-----4-----3-----3-----|
G|-3---3---5---5---1---1---3-----3-----5-----5-----3-----3-----|
D|---5---5---5---5---3---3----3-----3-----5-----5-----5-----5--|
A|-------------------------------------------------------------|
E|-------------------------------------------------------------|
   Fm  B    Eb  Bb     C
E|---------------------------3-----3-----1-----1---------------|
B|---1-----1-----3-----3-----4-----4-----3-----3-------5-------|
G|---1-----1-----3-----3--------3-----3-----3-----3----5-------|
D|------3-----3-----3-----3----------------------------5-------|
A|-----------------------------------------------------3-------|
E|-------------------------------------------------------------|

Припев:

   F-   Db   Eb  C Bb- C    F-   Db  C

E|---8------9-------------8------6------8------8------9----8---|
B|---9------9------8------8------6------8------9------9----8---|
G|---10-----10-----8------9------6------9------10-----10---9---|
D|---10-----11-----8------10-----8------10-----10-----11---10--|
A|---8------11-----6------10-----8------10-----8------11---10--|
E|----------9-------------8------6------8-------------9----8---|

Repeat guitar part for Версия 1 until ""

2nd part of Версия 2

   C-   G-   F-  Bb Eb Bb   C
E|---3------3------1-------------------------------------------|
B|---4------3------1------3------8------3------5---------------|
G|---5------3------1------3------8------3------5---------------|
D|---5------5------3------3------8------3------5---------------|
A|---3------5------3------1------6------1------3---------------|
E|----------3------1-------------------------------------------|

Repeat Припев:      ? ?

 Db Cm B Bbm A Db Eb Absus4 A
E|------------------3------1------------------4-4-4-4--4-------|
B|---------------6--4--4---2--2---6---10------4-4-4-4--4-------|
G|---------------6--5--4---3--2---6---8-------6-6-6-6--5-------|
D|---------------6--5--4---3--2---6---8-------6-6-6-6--6-------|
A|-8---6---------4--3--2---1--0---4---6------------------------|
E|--------8---4------------------------------------------------|

Solo [Chords are: C-, G-, F-, Bb (3 times) G-, C-, F-

E|-------------------------------------------------------------|
B|-------------------------------------------------------------|
G|----8-10-12-10-------------8-/12-10-12------------8--10--12--|
D|-10------------13-12--------------------------10-------------|
A|---------------------10-11-----------------------------------|
E|-------------------------------------------------------------|

         Rake
        |---|
E|--------------------------------------8--10-11-10--8-10----8-|
B|----------------8-9-8-9-/10--9-8-----8------------------11---|
G|-10------------------------------10-8------------------------|
D|----13-12----------------------------------------------------|
A|----------10-11----------------------------------------------|
E|-------------------------------------------------------------|

    ? Gets hard here?

E|-------------------------------------------------------------|
B|-8-11----8------8-9-11-11-9-8--------------------------------|
G|------10---8-10----------------------------------------------|
D|-------------------------------------3-5---3-5-6-8--10--8--6-|
A|-------------------------------3-5-6-----6-------------------|
E|-------------------------------------------------------------|

E|----------|
B|----------|
G|----Н-P---|
D|---5/6--|
A|----------|
E|----------|

"Tiny Версия after solo"
  Cm Gm   Fm B   F   Bb
E|-------------------------------------------------------------|
B|-4---4---3---3---1---1----3-----3----------------------------|
G|-5---5---3---3---1---1----3-----3---------------------3-3-3--|
D|---5---5---5---5---3---3-----3-----3--3-3-3-3-3-3-3-3-3-3-3--|
A|--------------------------------------3-3-3-3-3-3-3-3-1-1-1--|
E|--------------------------------------1-1-1-1-1-1-1-1--------|

E|---------------|
B|---------------|
G|---3-3-3-3-3---|
D|---3-3-3-3-3---|
A|---1-1-1-1-1---|
E|---------------|

Repeat Припев: and fade

You and me
We used to be together
Every day together always
I really feel
I'm losing my best friend
I can't believe
This could be the end

It looks as though you're letting go
And if it's real,
Well I don't want to know

Don't speak
I know just what you're saying
So please stop explaining

Don't tell me 'cause it hurts
Don't speak
I know what you're thinking
I don't need your reasons
Don't tell me 'cause it hurts

Our memories
They can be inviting
But some are altogether
Mighty frightening

As we die, both you and I
With my head in my hands
I sit and cry

ПРИПЕВ:

It's all ending
I gotta stop pretending who we are...
You and me
I can see us dying ... are we?


Текст, аккорды и табулатура для песни "Don't Speak", исполняет "No Doubt".
Используемые в песне аккорды можно найти в разделе Как брать аккорды. Аккорды для шестиструнной гитары. Другие песни можно найти на нашем сайте, воспользовавшись алфавитным указателем вверху страницы.


 
Ошибка в тексте? Выделите ошибку и нажмите Ctrl+Enter