BND (the intro track)
Album: No Doubt
By: No Doubt

This is a cool and funky little tune, and it goes a bit like this...

     intro                             Riff 1                (x3)
   G|---------------------------------|------3-2--0----2-x------|
   D|----3-3---------3-3--------------|*-----------2h3-----2h3-*|
   A|-3------3----3------3---3/15---|*-2h3-------------------*|
   E|---------------------------------|-------------------------|


   G|-----2h3-----9---10-|---------------|-----x-x----x----x-----|
   D|--------------------|- Then repeat -|-----------------------|
   A|-2h3-----3/7---8----|- riff 1 ------|-2h3-----2h3--2h3--2h3-|
   E|--------------------|---------------|-----------------------|


   G|----------------|-5-3-----------|----------------------------
   D|- Repeat riff 1-|-----5-3-1-----|*---------------------------
   A|--- again ------|-----------3-1-|*---------------1-1-1-1-2-2-
   E|----------------|---------------|-3-3-3-3-4-4-4-4------------

                        
   G|-----|------------------|--------------------------------------
   D|----*|*----------------*|--------------------------------------
   A|2-2-*|*-3-3-3-3/8--8-8-*|-3-3---3-3---3------------------------
   E|-----|------------------|-----1-----1--------------------------


       Some of the notes are pulled or popped but I couldn't be botherd 
       to tab that.  Figure it out ya self. Its not too hard.  

       If anyone has any corrections or wants any No Doubt stuff tabbed
       e-mail me at  [email protected]  Have fun!  Chris.


Текст, аккорды и табулатура для песни "Bnd", исполняет "No Doubt".
Используемые в песне аккорды можно найти в разделе Как брать аккорды. Аккорды для шестиструнной гитары. Другие песни можно найти на нашем сайте, воспользовавшись алфавитным указателем вверху страницы.


 
Ошибка в тексте? Выделите ошибку и нажмите Ctrl+Enter