A little something refreshing

Tabbed by Chris ([email protected])

      Fun song!!

     Intro
   G|-------------------------------------------------|
   D|------------------------------3---3-3--3-3-2-1-0-|
   A|-----------6-----5h6-3----2h3--------------------|
   E|-3-----5h6---------------------------------------|

     Riff 1                        
   G|-----------------------------|
   D|*---------8------5------8---*|
   A|*--5----6---6--3---3--6---6-*|
   E|-3---3-----------------------|

     Riff 2
   G|-----------------------------------8---8---8---8---8---8---8---8-
   D|---5---5---5---5---5---5---5---5---------------------------------
   A|---------------------------------6---6---6---6---6---6---6---6---
   E|-3---3---3---3---3---3---3---3-----------------------------------


   G|---5---5---5---5---5---5---5---5------------------------------|
   D|--------------------------------------------------------------|
   A|-3---3---3---3---3---3---3---3---8---8-8--8-8-6-5-6-5-3-------|
   E|--------------------------------------------------------6-5---|

     Riff 3
   G|-----------------------------|-------------------------------
   D|*6---6------------------5-6-*|- This riff differs -----------
   A|*--6---6--8---8-----8-6-----*|- as it gets faster -----------
   E|------------8---8-6----------|-------------------------------


    Song order:  Intro
                 Riff1 x 3
                 Riff2 x 1
                 Riff1 x 3 (getting slower at the end)
                 Riff3 x 4 (getting faster)


Текст, аккорды и табулатура для песни "A Little Something Refreshing", исполняет "No Doubt".
Используемые в песне аккорды можно найти в разделе Как брать аккорды. Аккорды для шестиструнной гитары. Другие песни можно найти на нашем сайте, воспользовавшись алфавитным указателем вверху страницы.


 
Ошибка в тексте? Выделите ошибку и нажмите Ctrl+Enter