MEXICAN SEAFOOD

Tuning: Ѕstep down

INTRO And CHORUS
--5-----------I------------------I--5-----------I----------------I
----5---0-----I------------------I----5---0-----I----------------I
--------0-0---I------------------I--------0-0---I----------------I
7---------0-4-I--4---------------I7---------0-4-I----------------I
7-----------4-I--4-2-4-2p4-2-0---I7-----------4-I--4-4-5-7-5-4-0-I
5-----3-----2-I--2-------------2-I5-----3-----2-I--2-------------I

VERSES
--------------I-------------I
--------------I-------------I
3----------3--I--------3----I
2----2-2-2-2--I--2-2-2-2----I
1----1-1-1-1--I--1-1-1-1----I
--------------I-----------3-I
     PM___       PM___

INTERLUDE
------------------I-------------------I
------------------I-------------------I
---------------14-I-13-12---1211-12--I Play this 4 times
7-----14-13-12-14-I-13-12---1211-12--I
7-----12-11-10----I-------------------I
5-----------------I-------------------I

----------------I----------------I
----------------I----------------I
----------------I----------------I
----------------I----------------I
----------------I-7-6-5----------I
0-3-4-0-4-5-6-0-I-------7-6-5-3--I

End with this

---------------I--------------I
---------------I--------------I
3--3-3-3-3-3---I--3-3-3-3-----I
2--2-2-2-2-2---I--2-2-2-2-----I
1--1-0-1-0-1---I--0-1-0-1-----I
---------------I-----------3--I


Текст, аккорды и табулатура для песни "Mexican Seafood", исполняет "Nirvana".
Используемые в песне аккорды можно найти в разделе Как брать аккорды. Аккорды для шестиструнной гитары. Другие песни можно найти на нашем сайте, воспользовавшись алфавитным указателем вверху страницы.


 
Ошибка в тексте? Выделите ошибку и нажмите Ctrl+Enter