riff A                          riff B 
   G#               E             C#  
E----------------- E------------ 
B----------------- B------------ 
G----------------- G|--6------6------ 6-----  
D|--------6-----------2------- D|--6---6-------6-----6-- 
A|-----6-----6-----2-----2---- A|--4--------------------   
E|--4-----------0------------- E------------  
  
riff C
    C#
E------------------- 
B|--------6--6--6--6------------ 
G|--6-------------------4--4--6- 
D|--6--------------------------- 
A|--4---------------------------  
E-------------------  


Intro: Riff A (G#-E) - Riff B(C#) - Riff-A (G#-E)- Riff C(G#)

Verse 1:
Riff A    - Riff B -      Riff-A-        Riff C

She eyes me like a pisces when I am weak 
I´ve been locked inside your Heart-Shaped box for a week 
I was drawn into your magnet tar pit trap 
I wish I could eat your cancer when you turn back 

CHOURUS:  
G#   E     C#(riff B)                    |    
 Hey, wait, I´ve got a new conplaint      |X2
G# E       C#                            |
 Forever in debt to your priceless advice |    
E  C#  pause  E C#(riff C)      
     Goin´ by

Verse 2:
Meat-eating orchids forgive no one just yet 
Cut myself angel´s hair and baby´s breath 
Broken hymen of your highness I´m left black 
Throw down your umbilical noose so I can climb right back

CHORUS

Solo:                                  x2           let ring
E-------------------------------------|------|
B|o-------9~~--------7~~--------5--4-2-0---------o|------|
G-----------------------------3-------|------|
D|-----6---------4----------2---------------------|-6----|
A|o----------------------------------------------o|-6----|
D-------------------------------------|-4----|

Verse 1

CHORUS


Текст, аккорды и табулатура для песни "Heart Shaped Box", исполняет "Nirvana".
Используемые в песне аккорды можно найти в разделе Как брать аккорды. Аккорды для шестиструнной гитары. Другие песни можно найти на нашем сайте, воспользовавшись алфавитным указателем вверху страницы.


 
Ошибка в тексте? Выделите ошибку и нажмите Ctrl+Enter