Song:  Spiritual Small Guy
Artist:  Ninety Pound Wuss
Album:  Ninety Pound Wuss
Copyright:  1995  Tooth & Nail Records
Tabbed by:  John Gula 



Intro/verse

------------------------------------
------------------------------------
---5--0000000---2222---4444-------
------------------------------------



Chorus
---------------------------------------------
---------------------------------------------
---0-----------0-----------0---------3--4---  x2
-------2---3-------2---3-------2--3---------

---------------------------------------------
---------------------------------------------
---0-----------0-----------0---------3--4-0- 
-------2---3-------2---3-------2--3---------
(chorus end before going into next verse)

Bass solo:

-------------------------------------------
-------------------------------------------
-------------------------------------------
--55---3---0----44---2-----0--------------
(repeat over and over until the song is over)

It sound like there are actuality more notes in the bass solo part then 
this, but I am very new to playing bass guitar, so for me, it sounds 
better to play it this way. If you have the exact number of each, please 
send the correction to [email protected]


John


Текст, аккорды и табулатура для песни "Spiritual Small Guy", исполняет "Ninety Pound Wuss".
Используемые в песне аккорды можно найти в разделе Как брать аккорды. Аккорды для шестиструнной гитары. Другие песни можно найти на нашем сайте, воспользовавшись алфавитным указателем вверху страницы.


 
Ошибка в тексте? Выделите ошибку и нажмите Ctrl+Enter