Song:  Apathetic Self Destruction
Artist:  Ninety Pound Wuss
Album:  Ninety Pound Wuss
Copyright:  1995  Tooth & Nail Records
Tabbed by:  Will Gorman

Intro/Verse:

G----------------------------------------------------|
D--4-4-4-4-4-4-0-0-0-0-0-0-0-2-2-2-2-2-2-2-2-2-2-2-2-|
A----------------------------------------------------|
E----------------------------------------------------|

Chorus:

G-----------------------------------------------|
D--4-4-4-4-4-0-0-0-0-0-2-2-2-2-2----------------|
A--------------------------------2-2-2-2-2------|
E-----------------------------------------------|

Bridge part 1 (at the end of  the second verse)

G------------------------------|
D------------------------------|
A--4--4--0--0--2-2-2-2---------|
E------------------------------|

Bridge part 2

G-----------------|
D-----2--2--2-----|
A--2--------------|
E-----------------|

I'm not sure if I got the number of times you play each note in the verse
and chorus exactly right, but you get the general idea.  Send any
corrections or comments to: [email protected]


Текст, аккорды и табулатура для песни "Apathetic Self Destruction", исполняет "Ninety Pound Wuss".
Используемые в песне аккорды можно найти в разделе Как брать аккорды. Аккорды для шестиструнной гитары. Другие песни можно найти на нашем сайте, воспользовавшись алфавитным указателем вверху страницы.


 
Ошибка в тексте? Выделите ошибку и нажмите Ctrl+Enter