#----------------------------------PLEASE NOTE---------------------------------#
#This file is the author's own work and represents their interpretation of the #
#song. You may only use this file for private study, scholarship, or research. #
#------------------------------------------------------------------------------##
From: [email protected]
Date: Sun, 9 Jul 1995 17:00:16 -0400

                           the downward spiral
                           by nine inch nails

-0-------------------------------I
----3--3--2--1-------------------I
----------------4--0--0--2-------I
----------------------------4----I
-------------------------------0-I
---------------------------------I
            repeat several times (and if you want breathe heavily)
-----------------------------------------------------------------I
----1---1---1---1---1---1---1------1---1---1---1---1---1---1-----I
--0-0-4---4---4---4---4---4---4--0-0-4---4---4---4---4---4---4---I
-----------------------------------------------------------------I
-3--3---3---3----------------------0---0---0---0---0---0---0---0-I
----------------3---3---3---3------------------------------------I
                              repeat several times until the......

(screaming)
he couldn't believe how easy it was
he put the gun into his face
bang!
(so much blood for such a tiny little hole)

problems (do) have solutions (you know)
a lifetime of fucking things up fixed in one determined flash

everything is blue
(everything is blue) in this world
the deepest shade of mushroom blue
all fuzzy
spilling out of my head 

there you have it.  should be close.  simple but spooks the shit 
out of me. remember to print in notepad for windows or ms-dos 
prompt so it would line up. comments, suggestions, questions, etc.
email [email protected]


do you believe in miracles? not really



Текст, аккорды и табулатура для песни "The Downward Spiral", исполняет "Nine Inch Nails".
Используемые в песне аккорды можно найти в разделе Как брать аккорды. Аккорды для шестиструнной гитары. Другие песни можно найти на нашем сайте, воспользовавшись алфавитным указателем вверху страницы.


 
Ошибка в тексте? Выделите ошибку и нажмите Ctrl+Enter