Band: Nine Inch Nails
Album: The Fragile/And All That Could Have Been
Song: La Mer
Tuning: Standard
Tabbed by: Stishiroth
Email: [email protected]

This is based on the live version from And All That Could Have Been.

The Intro gets played by some other 4 string instrument on AATCHB 
(its played by a piano on The Fragile version), i tabbed it out 
for bass just for the hell of it.

~ = let it ring
h = hammer on


Intro;
G|--14-17-17-16--
D|---------------
A|---------------
E|--------------- x1

G|--15-15-16-16-----------16----
D|--------------17-17---17--17--
A|------------------------------
E|------------------------------ x1

G|-----------------10-----
D|-16~17~17~16~15~---11-10
A|------------------------
E|------------------------ x1

G|--16~--15-15-14-14-16~-17~---17--
D|--------------------------17~--17
A|---------------------------------
E|--------------------------------- x1

G|------------------10------
D|-15~-15-16-17-15~---11-10~
A|--------------------------
E|-------------------------- x1

G|--14-17-17-16--
D|---------------
A|---------------
E|--------------- x1

G|--15-15-16-16~------16-15--------
D|----------------15~-------15-15--
A|---------------------------------
E|--------------------------------- x1

G|--------16-17----17---
D|--15-16-------16~--16~
A|----------------------
E|---------------------- x1

G|--14-17-17-16--
D|---------------
A|---------------
E|--------------- x1

G|--15-15-16-15-------------------------
D|--------------14~---14~---13~---12~---
A|--------------------------------------
E|-------------------------------------- x1

G|--17-----------
D|----16~--------
A|---------------
E|--------------- x18


Main Riff; (play this until the end)
G|---------------
D|---------------
A|---9-10---3----
E|-9------9------ 

G|---------------
D|---------------
A|-----10-11-----
E|-9h10----------


Текст, аккорды и табулатура для песни "La Mer", исполняет "Nine Inch Nails".
Используемые в песне аккорды можно найти в разделе Как брать аккорды. Аккорды для шестиструнной гитары. Другие песни можно найти на нашем сайте, воспользовавшись алфавитным указателем вверху страницы.


 
Ошибка в тексте? Выделите ошибку и нажмите Ctrl+Enter