1)-10-10-10-7-8---8-10------------------------
2)---------------------10---8-7-8-7-8--8-7-8-7-8
3)--------------------------------------------
4)--------------------------------------------
5)--------------------------------------------
6)--------------------------------------------

1))-10-10-10-7-8---8-10-----------------------10
2)---------------------10---8-7-8-7-8--8-7-8-7
3)---------------------------------------------
4)---------------------------------------------
5)---------------------------------------------
6)---------------------------------------------


Текст, аккорды и табулатура для песни "Котенок", исполняет "Никита Малинин".
Используемые в песне аккорды можно найти в разделе Как брать аккорды. Аккорды для шестиструнной гитары. Другие песни можно найти на нашем сайте, воспользовавшись алфавитным указателем вверху страницы.


 
Ошибка в тексте? Выделите ошибку и нажмите Ctrl+Enter