As recorded by Nightwish
(From the 2001 EP OVER THE HILLS AND FAR AWAY)

Music by Gary Moore
Transcribed by Jari Aarniala

Gtr I (E A D G B E) - ´Solo´
Gtr II (E A D G B E) - ´Rhythym´

Q=136
4/4
Gtr I
Wx8 Wx7
-------|--------|
-------|--------|
-------|--------|
-------|--------|
-------|--------|
-------|--------|


Em
Gtr I
|-3-| |-3-| |-3-| |-3-| |-3-| |-3-| |-3-| |-3-| |-3-|
H Q E E E E E E E E E E E E E E E E E E E E E E E E E E E
---|-------5-----7-----8-7-5-|-7-------------5----------|
|----------5-7-|-8-5-5---5-5---5-5-------|---5-5-5---5-7---8-7-5-7--|
-----------------|---------7----------------|
--------------------------------|
--------------------------------|
--------------------------------|
|
| Gtr II
| |-3-|
| W E E H E E E E E H E E
--------------------------------|
--------------------------------|
--------------------------------|
---|-2---------------------2-|-2-----------------2------|
---|-2---------------------2-|-2-----------------2------|
---|-0---------------------0-|-0-----------------0------|


|-3-| |-3-| |-3-| |-3-|
E E E E E E E E E E E E
|-------5-----7-----8-5-7-|
|-8-5-5---5-5---5-5-------|
--------------|
--------------|
--------------|
--------------|
|
| E E H E E
--------------|
--------------|
--------------|
|-2-----------------2-----|
|-2-----------------2-----|
|-0-----------------0-----|


|-3-| |-3-| |-3-| |-3-| |-3-| |-3-| |-3-| |-3-|
E E E E E E E E E E E E E E E E E E E E E E E E
|-8-5-5-5-7-8-10-8-7-5-----|-------5-----7-----8-7-5--|
-----------8-7-|-8-5-5---5-5---5-5--------|
------------------------------|
------------------------------|
------------------------------|
------------------------------|
|
| W E E H E E
------------------------------|
------------------------------|
------------------------------|
---------------|-2-----------------2------|
---------------|-2-----------------2------|
---------------|-0-----------------0------|


|-3-| |-3-| |-3-| |-3-| |-3-| |-3-| |-3-| |-3-|
E E E E E E E E E E E E E E E E E E E E E E E E
|-7-------------5---------|-------5-----7-----8-5-7-|
|---5-5-5---5-7---8-7-5-7-|-8-5-5---5-5---5-5-------|
|---------7-----------------------------|
----------------------------|
----------------------------|
----------------------------|
|
| E E H E E E E H E E
----------------------------|
----------------------------|
----------------------------|
|-2-----------------2-----|-2-----------------2-----|
|-2-----------------2-----|-2-----------------2-----|
|-0-----------------0-----|-0-----------------0-----|


|-3-| |-3-| |-3-| |-3-|
E E E E E E E E E E E E
|-8-5-5-5-7-8-10-8-7-5------|
-----------8-7--|
----------------|
----------------|
----------------|
----------------|
|
| W
----------------|
----------------|
----------------|
----------------|
----------------|
----------------|


Em G Em
3.5_______|
Q H. W W
-------------------------------------------------|
-------------------------------------------------|
|------------------------------------------------------|
-------------------------------------------------|
-------------------------------------------------|
-------------------------------------------------|
|
| PM------| PM------| PM--------| PM------| PM--------| PM------| PM---
| |---3---| |-3--| |-3-| |-3-| |-3-| |-3-| |-3-| |-3-| |-3-| |-3-| |-3-| |-3-|
| E E E E E E E E E E E E E E E E E E E E E E E E E E E E E E E E E E E E
-------------------------------------------------|
-------------------------------------------------|
-------------------------------------------------|
-------------------------------------------------|
|--2-----2-2--2--2-2-2-2-2-2-2-2-|-5-5-5-5-5-5-5-5-5-5-5-5-|-2-2-2-2-2-2-2-2-2-2-2-2-|
|--0-----0-0--0--0-0-0-0-0-0-0-0-|-3-3-3-3-3-3-3-3-3-3-3-3-|-0-0-0-0-0-0-0-0-0-0-0-0-|


D


Текст, аккорды и табулатура для песни "Over The Hills And Far Away", исполняет "Nightwish".
Используемые в песне аккорды можно найти в разделе Как брать аккорды. Аккорды для шестиструнной гитары. Другие песни можно найти на нашем сайте, воспользовавшись алфавитным указателем вверху страницы.


Слушать онлайн Over The Hills And Far Away


NightwishOver The Hills And Far Away на Яндекс.Музыке


 
Ошибка в тексте? Выделите ошибку и нажмите Ctrl+Enter