Nemo                                       

                                                                                                              
------|------|------|------------------------|-----------------------|
------|------|------|--17----20--17~---------|-----------------------|
------|------|------|------------------------|-------------------14--|
------|------|------|------------------------|------------x--17------|
------|------|------|------------------------|-----------------------|
------|------|------|------------------------|-----------------------|

                                                                
------------------------------|--------------------------------|
------------------------------|--------------------------------|
--16----19----------19--16~---|----16--16--14--14--19--19--16--|
------------17h-19------------|----17--17--12--12--19--19--17--|
------------------------------|--------------------------------|
------------------------------|--------------------------------|

                                                                    
------------------------------------------------|------------------|
------------------------------------------------|------------------|
------16-16-19-16-18-16-15-16-15----------------|------------------|
--19b----------------------------19-18-17-14-12b|------------------|
------------------------------------------------|------------------|
------------------------------------------------|------------------|

                                                                          
--------------------------|------------------------|----------|----------|
--------------------------|----------17------------|----------|----------|
-----------------------14-|--16~---------19~-------|----------|----------|
--------17--14------17----|------------------------|----------|----------|
--------------------------|------------------------|----------|----------|
--------------------------|------------------------|----------|----------|


Текст, аккорды и табулатура для песни "Nemo", исполняет "Nightwish".
Используемые в песне аккорды можно найти в разделе Как брать аккорды. Аккорды для шестиструнной гитары. Другие песни можно найти на нашем сайте, воспользовавшись алфавитным указателем вверху страницы.


Слушать онлайн Nemo


NightwishNemo на Яндекс.Музыке


 
Ошибка в тексте? Выделите ошибку и нажмите Ctrl+Enter