Nemo                                       

                                            
                                                          
D||------|------|------|------|--------------------------|
A||------|------|------|------|--------------------------|
F||------|------|------|------|--4--4--4--4--4--4--4--4--|
C||------|------|------|------|--2--2--2--2--2--2--2--2--|
G||------|------|------|------|--------------------------|
D||------|------|------|------|--------------------------|

                                                      
--------------------------|--------------------------|
--------------------------|--3--3--3--3--3--3--3--3--|
--4--4--4--4--4--4--4--4--|--0--0--0--0--0--0--0--0--|
--2--2--2--2--2--2--2--2--|--------------------------|
--------------------------|--------------------------|
--------------------------|--------------------------|

                                                                             
--------------------------|----|----|----|----|----|----|----|----|----|----|
--------------------------|----|----|----|----|----|----|----|----|----|----|
--2--2--2--2--2--2--2--2--|----|----|----|----|----|----|----|----|----|----|
--0--0--0--0--0--0--0--0--|----|----|----|----|----|----|----|----|----|----|
--------------------------|----|----|----|----|----|----|----|----|----|----|
--------------------------|----|----|----|----|----|----|----|----|----|----|

                                                                      
----|----|----|----|----|----|-------------------|-------------------|
----|----|----|----|----|----|-------------------|-------------------|
----|----|----|----|----|----|--4----------------|--4----------------|
----|----|----|----|----|----|--2----------------|--2----------------|
----|----|----|----|----|----|-------------------|-------------------|
----|----|----|----|----|----|-------------------|-------------------|

                                                                                
-------------------|-------------------|-------------------|-------------------|
-------------------|-------------------|-------------------|-------------------|
--2----------------|--2----------------|--4----------------|--4----------------|
--0----------------|--0----------------|--2----------------|--2----------------|
-------------------|-------------------|-------------------|-------------------|
-------------------|-------------------|-------------------|-------------------|

                                                                              
-------------------|-------------------|------------------|------------------|
-------------------|-------------------|------------------|------------------|
--7----------------|--2----------------|------------------|------------------|
--5----------------|--0----------------|------------------|------------------|
-------------------|-------------------|------------------|------------------|
-------------------|-------------------|------------------|------------------|

                                                                 
------------------|------------------|--------------------------|
------------------|------------------|--------------------------|
------------------|------------------|--0-----------------------|
------------------|------------------|--2--2--2--2--2--2--2--2--|
------------------|------------------|--------------------------|
------------------|------------------|--------------------------|

                                                      
--------------------------|--------------------------|
--------------------------|--------------------------|
--------------------------|--2--2--2--2--2--2--2--2--|
--4--4--4--4--4--4--4--4--|--------------------------|
--------------------------|--------------------------|
--------------------------|--------------------------|

                                                      
--------------------------|--------------------------|
--------------------------|--------------------------|
-----------------2--2--2--|--3-----------------------|
--0--0--0--0--0--0--0--0--|--5--5--5--5--5--5--5--5--|
--------------------------|--------------------------|
--------------------------|--------------------------|

                                                      
--------------------------|--------------------------|
--------------------------|--------------------------|
--0--0--0--0--0--0--0--0--|--0--0--0--0--0--0--0--0--|
--------------------------|--------------------------|
--------------------------|--------------------------|
--------------------------|--------------------------|

                                                      
--------------------------|--3-----------------------|
--------------------------|--1--1--1--1--1--1--1--1--|
--0--0--0--0--0--0--0--0--|--------------------------|
--------------------------|--------------------------|
--------------------------|--------------------------|
--------------------------|--------------------------|

                                                      
--------------------------|--3--------------3--3--3--|
--------------------------|--1--1--1--1--1--1--1--1--|
--3-----------------------|--------------------------|
--5--5--5--5--5--5--5--5--|--------------------------|
--------------------------|--------------------------|
--------------------------|--------------------------|

                                                                   
--------------------------|-------------------|-------------------|
--------------------------|-------------------|-------------------|
--5--5--5--5--5--5--5--5--|--4----------------|--4----------------|
--3--3--3--3--3--3--3--3--|--2----------------|--2----------------|
--------------------------|-------------------|-------------------|
--------------------------|-------------------|-------------------|

                                                                                
-------------------|-------------------|-------------------|-------------------|
-------------------|-------------------|-------------------|-------------------|
--2----------------|--2----------------|--4----------------|--4----------------|
--0----------------|--0----------------|--2----------------|--2----------------|
-------------------|-------------------|-------------------|-------------------|
-------------------|-------------------|-------------------|-------------------|

                                                                               
-------------------|-------------------|-------------------|------------------|
-------------------|-------------------|-------------------|------------------|
--7----------------|--2----------------|--4----------------|------------------|
--5----------------|--0----------------|--2----------------|------------------|
-------------------|-------------------|-------------------|------------------|
-------------------|-------------------|-------------------|------------------|

                                                                              
-------------------|------------------|-------------------|------------------|
-------------------|------------------|-------------------|------------------|
--2----------------|------------------|--4----------------|------------------|
--0----------------|------------------|--2----------------|------------------|
-------------------|------------------|-------------------|------------------|
-------------------|------------------|-------------------|------------------|

                                                                            
------------------|------------------|------------------|------------------|
------------------|------------------|------------------|------------------|
------------------|------------------|------------------|------------------|
------------------|------------------|------------------|------------------|
------------------|------------------|------------------|------------------|
------------------|------------------|------------------|------------------|

                                                              
------------------|------------------|-----------------------|
------------------|------------------|-----------------------|
------------------|------------------|-----------------------|
------------------|------------------|--9--------------9-9-9-|
------------------|------------------|--7--------------7-7-7-|
------------------|------------------|-----------------------|

                                                                      
--------------------|-----------------------|------------------------|
--------------------|-----------------------|------------------------|
--------------------|-----------------------|------------------------|
--9-----------------|--9--------------9-9-9-|--9---------5--7--5--4--|
--7-----------------|--7--------------7-7-7-|--7---------7--7--7--5--|
--------------------|-----------------------|------------------------|

                                                      
--------------------------|--------------------------|
--------------------------|--------------------------|
--------------------------|--------------------------|
--9--------9--9-----9--9--|--------------5--7--5--4--|
--7--7--7--7--7--7--7--7--|--7--7--7--7--7--7--7--7--|
--------------------------|--------------------------|

                                                      
--------------------------|--------------------------|
--------------------------|--------------------------|
--------------------------|--------------------------|
--9--------9--9-----9--9--|--------------------------|
--7--7--7--7--7--7--7--7--|--7--7--7--7--7--7--7--7--|
--------------------------|--------------------------|

                                                      
--------------------------|--------------------------|
--------------------------|--------------------------|
--------------------------|--------------------------|
--9--------9--9-----9--9--|--------------5--7--5--4--|
--7--7--7--7--7--7--7--7--|--7--7--7--7--7--7--7--7--|
--------------------------|--------------------------|

                                                                        
--------------------------|------------------------|-------------------|
--------------------------|------------------------|-------------------|
--------------------------|------------------------|-------------------|
--9--------9--9-----9--9--|--------------5----4----|--9----------------|
--7--7--7--7--7--7--7--7--|--7--7--7--7--7----5----|--7----------------|
--------------------------|------------------------|-------------------|

                                                           
------------------|-------------------|-------------------|
------------------|-------------------|-------------------|
------------------|--7----------------|-------------------|
------------------|--5----------------|--7----------------|
------------------|-------------------|--5----------------|
------------------|-------------------|-------------------|

                                                                   
--------------------------|-------------------|-------------------|
--------------------------|-------------------|-------------------|
--------------------------|-------------------|--7----------------|
-----9--------9-----9--9--|--9----------------|--5----------------|
--7--7--7--7--7--7--7--7--|--7----------------|-------------------|
--------------------------|-------------------|-------------------|

                                                                           
--------------------|--------------------------|--------------------------|
--------------------|--------------------------|--------------------------|
--------------------|-----7-----7--7-----7--7--|--------------3--5--3--2--|
--7--------7--------|--5--5--5--5--5--5--5--5--|--5--5--5--5--5--5--5--5--|
--5--------5--------|--------------------------|--------------------------|
--------------------|--------------------------|--------------------------|

                                                      
--------------------------|--------------------------|
--------------------------|--------------------------|
-----7-----7--7-----7--7--|--------------------------|
--5--5--5--5--5--5--5--5--|--5--5--5--5--5--5--5--5--|
--------------------------|--------------------------|
--------------------------|--------------------------|

                                                      
--------------------------|--------------------------|
--------------------------|--------------------------|
-----7-----7--7-----7--7--|--------------3--5--3--2--|
--5--5--5--5--5--5--5--5--|--5--5--5--5--5--5--5--5--|
--------------------------|--------------------------|
--------------------------|--------------------------|

                                                                           
--------------------------|--------------------|----|----------|----------|
--------------------------|--------------------|----|----------|----------|
-----7-----7--7-----7--7--|--3--------5--------|----|----------|----------|
--5--5--5--5--5--5--5--5--|--1--------3--------|----|----------|----------|
--------------------------|--------------------|----|----------|----------|
--------------------------|--------------------|----|----------|----------|

                                                                      
----------|-------------------|------------------|-------------------|
----------|-------------------|------------------|-------------------|
----------|--7----------------|------------------|--5----------------|
----------|--5----------------|------------------|--3----------------|
----------|-------------------|------------------|-------------------|
----------|-------------------|------------------|-------------------|

                                                                              
------------------|-------------------|------------------|-------------------|
------------------|-------------------|------------------|-------------------|
------------------|--7----------------|------------------|-------------------|
------------------|--5----------------|------------------|--3----------------|
------------------|-------------------|------------------|--1----------------|
------------------|-------------------|------------------|-------------------|

                                                                               
-------------------|-------------------|------------------|-------------------|
-------------------|-------------------|------------------|-------------------|
--5----------------|--7----------------|------------------|--5----------------|
--3----------------|--5----------------|------------------|--3----------------|
-------------------|-------------------|------------------|-------------------|
-------------------|-------------------|------------------|-------------------|

                                                                              
------------------|-------------------|------------------|-------------------|
------------------|-------------------|------------------|-------------------|
------------------|--7----------------|------------------|-------------------|
------------------|--5----------------|------------------|--3----------------|
------------------|-------------------|------------------|--1----------------|
------------------|-------------------|------------------|-------------------|

                                                                               
-------------------|-------------------|------------------|-------------------|
-------------------|-------------------|------------------|-------------------|
--5----------------|--7----------------|------------------|--5----------------|
--3----------------|--5----------------|------------------|--3----------------|
-------------------|-------------------|------------------|-------------------|
-------------------|-------------------|------------------|-------------------|

                                                                              
------------------|-------------------|------------------|-------------------|
------------------|-------------------|------------------|-------------------|
------------------|--7----------------|------------------|-------------------|
------------------|--5----------------|------------------|--3----------------|
------------------|-------------------|------------------|--1----------------|
------------------|-------------------|------------------|-------------------|

                                                                               
-------------------|-------------------|------------------|-------------------|
-------------------|-------------------|------------------|-------------------|
--5----------------|--7----------------|------------------|--5----------------|
--3----------------|--5----------------|------------------|--3----------------|
-------------------|-------------------|------------------|-------------------|
-------------------|-------------------|------------------|-------------------|

                                                                              
------------------|-------------------|------------------|-------------------|
------------------|-------------------|------------------|-------------------|
------------------|--7----------------|------------------|-------------------|
------------------|--5----------------|------------------|--3----------------|
------------------|-------------------|------------------|--1----------------|
------------------|-------------------|------------------|-------------------|

                                                                               
-------------------|-------------------|------------------|-------------------|
-------------------|-------------------|------------------|-------------------|
--5----------------|--7----------------|------------------|--5----------------|
--3----------------|--5----------------|------------------|--3----------------|
-------------------|-------------------|------------------|-------------------|
-------------------|-------------------|------------------|-------------------|

                                       
------------------|------------------||
------------------|------------------||
------------------|------------------||
------------------|------------------||
------------------|------------------||
------------------|------------------||



Текст, аккорды и табулатура для песни "Nemo", исполняет "Nightwish".
Используемые в песне аккорды можно найти в разделе Как брать аккорды. Аккорды для шестиструнной гитары. Другие песни можно найти на нашем сайте, воспользовавшись алфавитным указателем вверху страницы.


Слушать онлайн Nemo


NightwishNemo на Яндекс.Музыке


 
Ошибка в тексте? Выделите ошибку и нажмите Ctrl+Enter