Все аккорды с баре

Intro:

4/-----------        -----------7-5---  4/-----------        -----------------
5/-7-7-7-5-7- 3 раза ---3-2---5-----5-  5/-7-7-7-5-7- 3 раза ---3-2---5-5-3---
6/-5-5-5-3-5-        -1-----5---------  6/-5-5-5-3-5-        -1-----5-------3-

                                  2 раза

Куплет 1:

Am  A#m  Gm  Am

D  F  Am

A#m  Gm  Am Am 5/-8-7-5-------2-
               6/-------1-3-5---

Куплет 2(быстрее):

Am  A#m  Gm  Am

D  F  Am

A#m  Gm  Am Am Am Am 6/-5-7-

Припев(очень быстро):

C  Gm  A#m  Am 

F  D 5/-5-7777777 2 раза -5-7777777-8-7-5-8-5-5

C  Gm  A#m  Am 

F  E

Соло 1:

E F E  E F#
E F E  F C

Соло 2:
                                                              A#m
4/-------------5-3----------5-3-2---------------------5-3-----------------
5/-----8-7-------------8-7--------5-3-2-------8-7---------8-----8-----8---
6/-5-5-----5-5-----5-5--------------------5-5-----5-5-----6-6-6-6-6-6-6-6-
                                        
                                                          D
4/-------------5-3----------5-3-2---------------------5-3-----
5/-----8-7-------------8-7--------5-3-2-------8-7---------5---
6/-5-5-----5-5-----5-5--------------------5-5-----5-5-----5---

Вот так я играю это песню.


Текст, аккорды и табулатура для песни "Elvenpath", исполняет "Nightwish".
Используемые в песне аккорды можно найти в разделе Как брать аккорды. Аккорды для шестиструнной гитары. Другие песни можно найти на нашем сайте, воспользовавшись алфавитным указателем вверху страницы.


Слушать онлайн Elvenpath


NightwishElvenpath на Яндекс.Музыке


 
Ошибка в тексте? Выделите ошибку и нажмите Ctrl+Enter