Normal tuning : E A D G B E

Guitar intro:

E:-8-7-5-------5~--5-5---------8~-12-10-----------/13~-15-13-12-------|
B:-------8---5---------8---5~-----------10-12-13~---------------15~---|
G:---------7-------------7/-------------------------------------------|
D:--------------------------------------------------------------------|
A:--------------------------------------------------------------------|
E:--------------------------------------------------------------------|

E:------------|
B:------------|
G:-4---0---5--|
D:-3---2---7--|
A:-3---2---7--|
E:-1---0---5--|

E:--------------------------------------------------------------------------|
B:--------------------------------------------------------------------------|
G:--------------------------------------------------------------------------|
D:-----3------3---3-------2------2---2-------7------7---7-------7------7---7|
A:-----3------3---3-------2------2---2-------7------7---7-------7------7---7|
E:-1-1-1--1-1-1-1-1---0-0-0--0-0-0-0-0---5-5-5--5-5-5-5-5---5-5-5--5-5-5-5-5|

E:------------|
B:------------|
G:-4---4---5--|
D:-3---5---7--|
A:-3---5---7--|
E:-1---3---5--|

E:--------------------------------------------------------------------------|
B:--------------------------------------------------------------------------|
G:--------------------------------------------------------------------------|
D:-----3------3---3-------5------5---5-------7------7---7-------7------7---7|
A:-----3------3---3-------5------5---5-------7------7---7-------7------7---7|
E:-1-1-1--1-1-1-1-1---3-3-3--3-3-3-3-3---5-5-5--5-5-5-5-5---5-5-5--5-5-5-5-5|

E:--------------------------------------------------------------------------|
B:--------------------------------------------------------------------------|
G:------------------------7------7---7--------------------------------------|
D:-----3------3---3-------7------7---7-------7------7---7-------7------7---7|
A:-----3------3---3---5-5-5--5-5-5-5-5-------7------7---7-------7------7---7|
E:-1-1-1--1-1-1-1-1----------------------5-5-5--5-5-5-5-5---5-5-5--5-5-5-5-5|

E:------------|----------------------------------------------------------|
B:-6----------|----------------------------------------------------------|
G:-7---5---4--|------7------7---7----------------------------------------|
D:-7---7---5--|------7------7---7-------7------7---7-------5------5---5--|
A:-5---7---5--|--5-5-5--5-5-5-5-5-------7------7---7-------5------5---5--|
E:-----5---3--|---------------------5-5-5--5-5-5-5-5---3-3-3--3-3-3-3-3--|

E:------------------|
B:------------------|
G:-----------5---4--|
D:---5---5---5---4--|
A:---5---5---3---2--|
E:-3-3-3-3----------|

E:-5---7---8------8---7---5------5---7---8------7---5---3--|
B:-6---8---10-----8---7---5------6---8---10-----8---6---3--|
G:-7---9---10-----9---X---5------7---9---10-----9---7---4--|
D:-7---9---10-----10--9---7------7---9---10-----9---7---5--|
A:-5---7---8------10--9---7------5---7---8------7---5---5--|
E:----------------8---7---5-----------------------------3--|


Текст, аккорды и табулатура для песни "Deep Silent Complete", исполняет "Nightwish".
Используемые в песне аккорды можно найти в разделе Как брать аккорды. Аккорды для шестиструнной гитары. Другие песни можно найти на нашем сайте, воспользовавшись алфавитным указателем вверху страницы.


Слушать онлайн Deep Silent Complete


NightwishDeep Silent Complete на Яндекс.Музыке


 
Ошибка в тексте? Выделите ошибку и нажмите Ctrl+Enter