Riff 1 (play it 4 times in the intro)
e:--------------------------------------------------------------------------|
B:---------------------------------3-------2--------------------------------|
G:-----------------2-------------------------------4------------------------|
D:-2-4-4-4---4-4-4---4-4-4---4-4-4---4-2-4---4-2-4---4-2-4---4-2------------|
A:---------------------------------------------------------------5----------|
E:--------------------------------------------------------------------------|

e:--------------------------------------------------------------------------|
B:--------------------------------------------------------------------------|
G:--------------------------------------------------------------------------|
D:------------------7---6---------------------7---6-------------------------|
A:-4h5-5-5----5-5-5---5---5---4h5-5-5---5-5-5---5---5-----------------------|
E:--------------------------------------------------------------------------|

Riff 2
e:--------------------------------------------------------------------------|
B:--------------------------------------------------------------------------|
G:--------------------------------------------------------------------------|
D:-------3---4---6---7---6---4---6---4---3---4---3-4-3----------------------|
A:-4-5-4---4---4---4---4---4---4---4---4---4---4-------5-4-2----------------|
E:-----------------------------------------------------------5-4-(2)--------|


e:--------------------------------------------------------------------------|
B:--------------------------------------------------------------------------|
G:-------------------------2-----------7---------------------2 TIMES--------|
D:-4-----4-----2-----4-----2-----------7-----7-----6------------------------|
A:-4-----4-----2-----4-----0-----4-----5-----7-----6------------------------|
E:-2-----2-----0-----2-----------1-----------5-----4------------------------|

Play 2 times the riff 1, once the riff 2 then the verse.

Chorus
e:--------------------------------------------------------------------------|
B:--------------------------------------------------------------------------|
G:--------------------------------------------------------------------------|
D:--------------------------------------------------------------------------|
A:-5-5-5-5-5-7-7-7-7-7-5-4-4-4-4-4-----------5-5-5-5-5----------------------|
E:---------------------------------2-2-2-2-2-----------5-5-5-5-5-0-0-0-0-0-0|

e:--------------------------------------------------------------------------|
B:--------------------------------------------------------------------------|
G:-7-----9-----6-----------7-----------6------------------------------------|
D:-7-----9-----6-----4-----7-----7-----6------------------------------------|
A:-5-----7-----4-----4-----5-----7-----4------------------------------------|
E:-------------------2-----------5------------------------------------------|

Solos
Rhythm guitar 1, play it two times

e:--------------------------------------------------------------------------|
B:--------------------------------------------------------------------------|
G:--------------------------------------------------------------------------|
D:------------------------------4-----6-----7-----9-11----------------------|
A:------------------------------4-----6-----7-----9-11----------------------|
E:-0h2-2-2-2-2-0h2-2-2-2-2--2-2-2-4-4-4-5-5-5-5-5-7-9-----------------------|

Rhythm guitar 2, play it two times
e:--------------------------------------------------------------------------|
B:--------------------------------------------------------------------------|
G:-------------------------------------------7---9--------------------------|
D:-----------------0---------------2---------7---9--------------------------|
A:-0h2-2-2---2p0h2---2-2-2---2p0h2---2-2-2---5---7--------------------------|
E:--------------------------------------------------------------------------|

e:--------------------------------------------------------------------------|
B:--------------------------------------------------------------------------|
G:-------------------------------------------7---2--------------------------|
D:-----------------0---------------2---------7---2--------------------------|
A:-0h2-2-2---2p0h2---2-2-2---2p0h2---2-2-2---5---0--------------------------|
E:--------------------------------------------------------------------------|

Guitar under keyboard solo, play it two times
e:--------------------------------------------------------------------------|
B:--------------------------------------------------------------------------|
G:-------------2-4-------------------------------2-4------------------------|
D:-------------2-4--------------2----------------2-4--------------2---------|
A:-------------0-2--------------2----------------0-2--------------2---------|
E:-2-2-2-2-2-2------2-2-2-2-2-2-0----2-2-2-2-2-2------2-2-2-2-2-2-0---------|
   

Guitar solo 1
e:-------------------12-14-------------------------------17-------19--------|
B:-15-14-12-12-14-15-------14-15-------19-17-15-15-17-19----19-17-----------|
G:--------------------------------------------------------------------------|
D:--------------------------------------------------------------------------|
A:--------------------------------------------------------------------------|
E:--------------------------------------------------------------------------|

:-------------------------------------------------------------------------19|
B:-15-14-12-12-14-15-12-10----------19-17-15-15-17-19-19p17p15-19p17p15-14--|
G:-------------------------12-11--------------------------------------------|
D:--------------------------------------------------------------------------|
A:--------------------------------------------------------------------------|
E:--------------------------------------------------------------------------|

Rhythm guitar under guitar solo 1
e:--------------------------------------------------------------------------|
B:--------------------------------------------------------------------------|
G:-------------7-9--------------2----------------7-9--------------2---------|
D:-------------7-9--------------2----------------7-9--------------2---------|
A:-2-2-2-2-2-2-5-7--2-2-2-2-2-2-0----2-2-2-2-2-2-5-7--2-2-2-2-2-2-0---------|
E:--------------------------------------------------------------------------|

Guitar under keyboard solo, play it three times
e:--------------------------------------------------------------------------|
B:--------------------------------------------------------------------------|
G:--------------------------------------------------------------------------|
D:------------------------------4-----6-----7-----9-11----------------------|
A:------------------------------4-----6-----7-----9-11----------------------|
E:-0h2-2-2-2-2-0h2-2-2-2-2--2-2-2-4-4-4-5-5-5-5-5-7-9-----------------------|


Guitar solo 2
e:--------------------------------------------------------------------------|
B:--------------------------------------------------------------------------|
G:-6---------4---------2---------1------------------------------------------|
D:---7---------6---------4---------3-------4---------3----------------------|
A:-----9---------7---------5---------4-------5---------4--------------------|
E:---------------------------------------------7---------4------------------|

Rhythm guitar under solo 2, too hard to play ;)
e:--------------------------------------------------------------------------|
B:--------------------------------------------------------------------------|
G:--------------------------------------------------------------------------|
D:--------------------------------------------------------------------------|
A:--------------------------------------------------------------------------|
E:-2-2-2-2-2-2-2-2-2-2-2-2-2-2-2-2-2-2-2-2-2-2-2-2-2-2-2-2-2----------------|
 

Tarja sings
e:--------------------------------------------------------------------------|
B:--------------------------------------------------------------------------|
G:-7-----6--------------2-----------7---------------------------------------|
D:-7-----6-----4--------2-----2-----7-----2-----(4)-------------------------|
A:-5-----4-----4--------0-----2-----5-----2-----(4)-------------------------|
E:-------------2--------------0-----------0-----(2)-------------------------|

Play 2 times the riff 1, once the riff 2 then the verse.

Chorus
e:--------------------------------------------------------------------------|
B:--------------------------------------------------------------------------|
G:--------------------------------------------------------------------------|
D:--------------------------------------------------------------------------|
A:-5-5-5-5-5-7-7-7-7-7-5-4-4-4-4-4-----------5-5-5-5-5----------------------|
E:---------------------------------2-2-2-2-2-----------5-5-5-5-5-0-0-0-0-0-0|


e:--------------------------------------------------------------------------|
B:--------------------------------------------------------------------------|
G:--------------------------------------------------------------------------|
D:--------------------------------------------------------------------------|
A:-5-5-5-5-5-7-7-7-7-7-5-4-4-4-4-4-----------5-5-5-5-5-----------4-4-4-4-4-4|
E:---------------------------------2-2-2-2-2-----------5-5-5-5-5------------|

In the last chorus, a guitar enters and plays the vocal melody
e:--------------------------------------------------------------------------|
B:----14-12-9-10-12-14-9-10--------------10-12-14-12-10-10~--9--------------|
G:-11-----------------------11--------11------------------------------------|
D:--------------------------------------------------------------------------|
A:--------------------------------------------------------------------------|
E:-LEAD GUITAR--------------------------------------------------------------|
|
e:-RHYTHM GUITAR------------------------------------------------------------|
B:--------------------------------------------------------------------------|
G:-7--------9--------5----------------7---------2---------------------------|
D:-7--------9--------5-------4--------7---------2---------2-----------------|
A:-5--------7--------4-------4--------5---------0---------2-----------------|
E:---------------------------2----------------------------0-----------------|

e:--------------------------------------------------------------------------|
B:----14-12-9-10-12-14-9-10----------------------10-12-14-12-10-14~---------|
G:-11-----------------------11----------------11----------------------------|
D:--------------------------------------------------------------------------|
A:--------------------------------------------------------------------------|
E:-LEAD GUITAR--------------------------------------------------------------|
|
e:-RHYTHM GUITAR-(play it fast and furious)---------------------------------|
B:--------------------------------------------------------------------------|
G:--------------------------------------------7-----------------6-----------|
D:--------------------------------------------7---------7-------6---------4-|
A:-5-5-5-5-5-7-7-7-7-7-5-4-4-4-4-4------------5---------7-------4---------4-|
E:---------------------------------2-2-2-2-2------------5-----------------2-|


Текст, аккорды и табулатура для песни "Crownless", исполняет "Nightwish".
Используемые в песне аккорды можно найти в разделе Как брать аккорды. Аккорды для шестиструнной гитары. Другие песни можно найти на нашем сайте, воспользовавшись алфавитным указателем вверху страницы.


Слушать онлайн Crownless


NightwishCrownless на Яндекс.Музыке


 
Ошибка в тексте? Выделите ошибку и нажмите Ctrl+Enter