STOP DRAGGIN' MY HEART AROUND

by Stevie Nicks w/ Tom Petty

INTRO:

    E       G       A       E       G       A

E---0-------3-------0-------0-------3-------0---------|
B---0-------3-------2-------0-------3-------2---------|
G---1-------0-------2-------1-------0-------2---------|
D---2-------0-------2-------2-------0-------2---------|
A---2-------2-------0-------2-------2-------0---------|
E---0-------3-------X-------0-------3-------X---------|


E---12--------------7-5---5---------------------------|
B-----------------------8---5-------------------------|
G-----------------------------------------------------|
D-----------------------------------------------------|
A-----------------------------------------------------|
E-----------------------------------------------------|


    E       G       A           E       G       A

E---0-------3-------0-----------0-------3-------0-----|
B---0-------3-------2-----------0-------3-------2-----|
G---1-------0-------2-----------1-------0-------2-----|
D---2-------0-------2-----------2-------0-------2-----|
A---2-------2-------0-----------2-------2-------0-----|
E---0-------3-------X-----------0-------3-------X-----|


E-------10~-------------------------10~---------------|
B-----8---------------------------8-------------------|
G---9---------------------------9---------------------|
D-----------------------------------------------------|
A-----------------------------------------------------|
E-----------------------------------------------------|

E                      G             A
Baby you came knockin' on my front door
E                         G      A
Same old line you used to use before
E                            G              A
I said, 'Yeah', well what am I supposed to do?
E                           G      A
I didn't know what I was gettin' into


CHORUS:
C                       D
So you've had a little trouble in town
C                         D
Now you're keepin' some demon down
C                 D
Stop draggin' my, stop draggin' my
C  G  C
Stop draggin' my heart around


2nd Verse (repeat E,G,A progression):

It's hard to think about what you've wanted
It's hard to think about what you've lost
This doesn't have to be the big get even
This doesn't have to be anything at all
I know you really wanna tell me good-bye
I know you really wann be your own girl


CHORUS (repeat 1st chorus chords):

Baby, you could never look me in the eyes
Yeah, you buckle with the weight of the words
Stop draggin' my, stop draggin' my
Stop draggin' my heart around


Interlude:
D,C,G (3X)
A,C,G,C

3rd Verse (repeat E,G,A progression):

Theres' people runnin' round loose in the world
Ain't got nothin' better to do
Than make a meal of some bright-eyed kid
You need someone lookin' after you
I know you really wanna tell me good-bye
I know you really wanna be your own girl

Repeat 2nd CHORUS

 (mailto:[email protected])


Текст, аккорды и табулатура для песни "Stop Draggin My Heart Around", исполняет "Nicks Stevie".
Используемые в песне аккорды можно найти в разделе Как брать аккорды. Аккорды для шестиструнной гитары. Другие песни можно найти на нашем сайте, воспользовавшись алфавитным указателем вверху страницы.


 
Ошибка в тексте? Выделите ошибку и нажмите Ctrl+Enter