This is my first tab so be kind.  It really sounds good.  Listen to the song to get the 
right strumming Patterns.

Intro

e---------------------+----------------+--------------------
B---------------------+----------------+--------------------
G-----777-99-11-9-----+-----777--------+------99-11-9-------
D-997-777-99-11-9-999-+-997-777-77-777-+-9977-99-11-9-999---
A-997-555-77- 9-7-999-+-997-555-77-777-+-9977-77- 9-7-999---
E-775-------------777-+-775-----55-555-+-7755---------777---


e-----------------------------------------------------------
B-----------------------------------------------------------
G------99-11-9----------------------------------------------
D-9977-99-11-9-999------------------------------------------
A-9977-77- 9-7-999------------------------------------------
E-7755---------777------------------------------------------

Verses

e-----------------------------------------------------------
B-----------------------------------------------------------
G-----------------------------------------------------------
D-9999979--9999979--999--9999979--9999979--12---------------
A-9999979--9999979--999--9999979--9999979--12---------------
E-7777757--7777757--777--7777757--7777757--10---------------

Chorus

e-------------------+---------------------------------------
B-------------------+---------------------------------------
G-------99-11-9-----+--------99-11-9------------------------
D-99-77-99-11-9-999-+--99-77-99-11-9-999--------------------
A-99-77-77- 9-7-999-+--99-77-77- 9-7-999--------------------
E-77-55---------777-+--77-55---------555--------------------


For the 2nd and 3rd time doing chorus play line twice.
I didnt have time to tab the solo, maybe later. 
I would like comments and hopefully good ratings.
Be kind on me and listen to the CD, its great!

Comments to [email protected]


Текст, аккорды и табулатура для песни "Where Do I Hide", исполняет "Nickelback".
Используемые в песне аккорды можно найти в разделе Как брать аккорды. Аккорды для шестиструнной гитары. Другие песни можно найти на нашем сайте, воспользовавшись алфавитным указателем вверху страницы.


 
Ошибка в тексте? Выделите ошибку и нажмите Ctrl+Enter