I've only seen one version of this song tabbed out, it was wrong, first of all I
am POSITIVE the tuning is drop-c (like drop-d, cept another whole step lower - 
same as a lot of recent Deftones stuff). You only have to listen to the intro to this
song, and you can hear the open C string. I haven't tabbed out the lead riffs or
solo, cuz I'm a crap guitarist.



INTRO
(clean, slight reverb)
D |-----------------------------------------|
A |-----------------------------------------|
F |-----------------------------------------|
C |-----7---7---7---7---7---7---7---7-------|
G |-----------------------------------------|
C |-------0---0---0---0---0---0---0---0-----|



VERSE 1
(clean, slight reverb - until *)
D |-------------------------------------------------------------------------|
A |-------------------------------------------------------------------------|
F |o-----------------------------------------------------------------------o|
C |o----7---7---7---7---7---7---7---7---7---7---7---7---7---7---7---7------o|
G |-------------------------------------------------------------------------|
C |-------0---0---0---0---3---3---3---3---5---5---5---5---5---5---5---5-----|
    (play x 3)

D |-------------------------------------------------------------------------|
A |-------------------------------------------------------------------------|
F |-------------------------------------------------------------------------|
C |-----7---7---7---7---7---7---7---7---7---7---7---7-------------x-x-x-----|
G |---------------------------------------------------------------x-x-x-----|
C |-------0---0---0---0---3---3---3---3---5---5---5---5-----------x-x-x-----|
                                                                  *



CHORUS 1
(distortion)
D |----------------------------------------------------------------------|
A |----------------------------------------------------------------------|
F |o----3-3-3-3-3-3-3-3-------------------------------------------------o|
C |o----3-3-3-3-3-3-3-3-3-3-3-3-3-3-3-3/5-5-3-3/5-5-3-3/5-5-3-3/5-5-----o|
G |-----1-1-1-1-1-1-1-1-3-3-3-3-3-3-3-3/5-5-3-3/5-5-3-3/5-5-3-3/5-5------|
C |---------------------3-3-3-3-3-3-3-3/5-5-3-3/5-5-3-3/5-5-3-3/5-5------|
    (play x 2)

D |---------------------------------------|
A |---------------------------------------|
F |-----7---------------------------------|
C |-----7-(let ring into next VERSE)------|
G |-----5---------------------------------|
C |---------------------------------------|




VERSE 2
(clean, slight reverb - until *)
D |-------------------------------------------------------------------------|
A |-------------------------------------------------------------------------|
F |o-----------------------------------------------------------------------o|
C |o----7---7---7---7---7---7---7---7---7---7---7---7---7---7---7---7------o|
G |-------------------------------------------------------------------------|
C |-------0---0---0---0---3---3---3---3---5---5---5---5---5---5---5---5-----|
    (play x 4)

D |-------------------------------------------------------------------------|
A |-------------------------------------------------------------------------|
F |-------------------------------------------------------------------------|
C |-----7---7---7---7---7---7---7---7---7---7---7---7-------------x-x-x-----|
G |---------------------------------------------------------------x-x-x-----|
C |-------0---0---0---0---3---3---3---3---5---5---5---5-----------x-x-x-----|
                                                                  *



CHORUS 2
(distortion)
D |----------------------------------------------------------------------|
A |----------------------------------------------------------------------|
F |o----3-3-3-3-3-3-3-3-------------------------------------------------o|
C |o----3-3-3-3-3-3-3-3-3-3-3-3-3-3-3-3/5-5-3-3/5-5-3-3/5-5-3-3/5-5-----o|
G |-----1-1-1-1-1-1-1-1-3-3-3-3-3-3-3-3/5-5-3-3/5-5-3-3/5-5-3-3/5-5------|
C |---------------------3-3-3-3-3-3-3-3/5-5-3-3/5-5-3-3/5-5-3-3/5-5------|
    (play x 4)




BRIDGE
(guitar 1, distortion)
D |-----------------------------------------------------|
A |-----------------------------------------------------|
F |o---------------------------------------------------o|
C |o---------------------------------------------------o|
G |-----------------------------------------------------|
C |-----0-----------2--3---/10---5------------x--3-----|
    (play x 4)

D |-----------------------------------------------------|
A |-----------------------------------------------------|
F |-----------------------------------------------------|
C |-----x--x--------------------------------------------|
G |-----x--x--------------------------------------------|
C |-----x--x--------0-(let ring)------------------------|

(guitar 2, lead)



FINAL VERSE
(clean, slight reverb - until *)
D |-----------------------------------------|
A |-----------------------------------------|
F |-----------------------------------------|
C |-----7---7---7---7---7---7---7---7-------|
G |-----------------------------------------|
C |-------0---0---0---0---0---0---0---0-----|

D |-------------------------------------------------------------------------|
A |-------------------------------------------------------------------------|
F |-------------------------------------------------------------------------|
C |-----7---7---7---7---7---7---7---7---7---7---7---7---7-------------------|
G |-------------------------------------------------------------------------|
C |-------0---0---0---0---3---3---3---3---5---5---5---5---5-----------------|

D |-------------------------------------------------------------------------|
A |-------------------------------------------------------------------------|
F |-------------------------------------------------------------------------|
C |-------------7---7---7---7---7---7---7---7---7---7---7---7---7---7-------|
G |-------------------------------------------------------------------------|
C |---------------0---0---3---3---3---3---5---5---5---5---5---5---5---5-----|

D |-------------------------------------------------------------------------|
A |-------------------------------------------------------------------------|
F |-------------------------------------------------------------------------|
C |-----7---7---7---7---7---7---7---7---7---7---7---7---7---7---7---7-------|
G |-------------------------------------------------------------------------|
C |-------0---0---0---0---3---3---3---3---5---5---5---5---5---5---5---5-----|

D |-------------------------------------------------------------------------|
A |-------------------------------------------------------------------------|
F |-------------------------------------------------------------------------|
C |-----7---7---7---7---7---7---7---7---7---7---7---7-------------x-x-x-----|
G |---------------------------------------------------------------x-x-x-----|
C |-------0---0---0---0---3---3---3---3---5---5---5---5-----------x-x-x-----|
                                                                  *


   repeat CHORUS 2



OUTRO
D |--------------------------------------------------------------------------|
A |--------------------------------------------------------------------------|
F |-----3-3-3-3-3-3-3-3------------------------------------------------------|
C |-----3-3-3-3-3-3-3-3-3-3-3-3-3-3-3-3/5-5-3-3/5-5-3-3-5--5--5--5--5--5-----|
G |-----1-1-1-1-1-1-1-1-3-3-3-3-3-3-3-3/5-5-3-3/5-5-3-3-5--5--5--5--5--5-----|
C |---------------------3-3-3-3-3-3-3-3/5-5-3-3/5-5-3-3-5--5--5--5--5--5-----|

(guitar 1, distortion)
D |------------------------------------------------------------------------|
A |------------------------------------------------------------------------|
F |o----------------------------------------------------------------------o|
C |o----------------------------------------------------------------------o|
G |-----8-----------103---------------5-----------------------------------|
C |-----8-----------103---------------5-----------------------------------|


Текст, аккорды и табулатура для песни "Too Bad", исполняет "Nickelback".
Используемые в песне аккорды можно найти в разделе Как брать аккорды. Аккорды для шестиструнной гитары. Другие песни можно найти на нашем сайте, воспользовавшись алфавитным указателем вверху страницы.


 
Ошибка в тексте? Выделите ошибку и нажмите Ctrl+Enter